Cifra Club

Fireman

Jawbreaker

Cifra: Principal (violão e guitarra)
Tom: F#
Dear You



INTRO pt.1

e|---------------------------------------------|
B|---------------------------------------------|
G|8888888888888888\55555555/1111111111111111---|
D|xxxxxxxxxxxxxxxx\xxxxxxxx/x-x-x-x-x-x-x-x----|
A|6666666666666666\33333333/9-9-9-9-9-9-9-9----|
D|---------------------------------------------|

INTRO pt.2

e|--------------------------------------|
B|--------------------------------------|
G|---------------------------------5~---|
D|------3~-------4~-------5~---5~-------|
A|--3~-------5~-------5~-----6~--6~-----|
D|3~--3~---0~--0~---5~--5~--------------|

VERSE
Palm Muted

e|--------------------------------|----------------------------------------|
B|--------------------------------|-"It's good to be awake"----------------|
G|--------------------------------|----------------------------------------|
D|33333333000000005555555511111111|55555555333333331111111111111111--------|
A|33333333000000005555555511111111|55555555333333331111111111111111--------|
D|33333333000000005555555511111111|55555555333333331111111111111111--------|

CHORUS
Chords

e|------------------------------|
B|------------------------------|
G|3--------3--5-----------------|
D|3--3--1--3--5--1--------------|
A|1--3--1--1--3--1---(x2)-------|
D|---3--1--------1--------------|

INTERLUDE
Chords

e|-----------------------------------------------------|
B|-----------------------------------------------------|
G|3-----------3--5--------3-----------3--5-------------|
D|3--5--3--1--3--5--3--1--3--5--3--1--3--5--5--3--1----|
A|1--5--3--1--1--3--3--1--1--5--3--1--1--3--5--3--1----|
D|---5--3--1--------3--1-----5--3--1--------5--3--1----|

END
e|----------|
B|----------|
G|3~--------|
D|3~--------|
A|1~--------|
D|----------|

Rate and enjoy.

exibições 330
Acordes para:
    Composição: Jawbreaker

    0 comentários

    mostrar mais comentários

    Conseguiu tocar?

    0 tocaram 0 ainda não

    Grave um vídeo tocando Fireman e mande pra gente!

    00:00 / 00:00
    outros vídeos desta música
    repetir qualidade Automático
    Outros vídeos desta música
    00:00 / 00:00
    Automático
    OK