Cifra Club

Aprenda

Idade Se Eu Quiser (Neverland's Mix)

Jay Vaquer

Cifra: Principal (violão e guitarra)
tom: Bbm (forma dos acordes no tom de Bm) Afinação: Eb Ab Db Gb Bb Eb
[Intro] 

[Riff]

E|-------------------------|
B|-------------------------|
G|--------------------6b7--|
D|-4-4-4-4--4-5--5-5-------|
A|-4-4-4-4--4-5--5-5-------|
E|-2-2-2-2--2-3--3-3-------|

E|-------------------------|
B|-------------------------|
G|-------------------------|
D|-7-7-7-7--7-9--9-9--3b4--|
A|-7-7-7-7--7-9--9-9-------|
E|-5-5-5-5--5-7--7-7-------|

Bm
  Tenho a idade que eu bem entender
O suficiente pra mim, o bastante pra você
E você quer meu RG
É que não sigo manual, nem guia
Do que deve acontecer
Do que se deve fazer

Bm              A
  Se já ta tarde
Bm               A
  Se ainda é cedo
Bm             A
  Se tenho saco
Bm             A
  Se tenho medo

    Bm                       A
Por que você ainda quer saber
Bm                A
  Como devo pensar
Bm                   A
  O quanto devo durar
Bm                   A
  Ou se preciso casar

[Riff]

E|-------------------------|
B|-------------------------|
G|--------------------6b7--|
D|-4-4-4-4--4-5--5-5-------|
A|-4-4-4-4--4-5--5-5-------|
E|-2-2-2-2--2-3--3-3-------|

E|-------------------------|
B|-------------------------|
G|-------------------------|
D|-7-7-7-7--7-9--9-9--3b4--|
A|-7-7-7-7--7-9--9-9-------|
E|-5-5-5-5--5-7--7-7-------|

Tenho a idade que eu quiser
Tenho o tempo que vier
Tenho até a cara que você me der
Perfeito
Bom proveito
Escolha o meu defeito e me dê

Bm
  Quantas frustrações acumuladas
Doenças
Quantas porradas
Namoradas

Bm             A
  Se tô acabado
Bm              A
  Bem conservado
Bm             A
  Irresponsável
Bm             A
  Ou fracassado

[Riff]

E|-------------------------|
B|-------------------------|
G|--------------------6b7--|
D|-4-4-4-4--4-5--5-5-------|
A|-4-4-4-4--4-5--5-5-------|
E|-2-2-2-2--2-3--3-3-------|

E|-------------------------|
B|-------------------------|
G|-------------------------|
D|-7-7-7-7--7-9--9-9--3b4--|
A|-7-7-7-7--7-9--9-9-------|
E|-5-5-5-5--5-7--7-7-------|

Tenho a idade que eu quiser
Tenho o tempo que vier
Tenho até a cara que você me der
Perfeito
Bom proveito
Escolha o meu defeito e me dê
Escolha o meu defeito e me dê

         G
Se é a idade que decide
      A
Se resolve e proíbe
       Bm
Se é culpa do tempo
   Em
Lamento

         G
Se é a idade que decide
      A
Se resolve e proíbe
       Bm
Se é culpa do tempo
   Em
Aaahhhhh

[Riff]

E|-------------------------|
B|-------------------------|
G|--------------------6b7--|
D|-4-4-4-4--4-5--5-5-------|
A|-4-4-4-4--4-5--5-5-------|
E|-2-2-2-2--2-3--3-3-------|

E|-------------------------|
B|-------------------------|
G|-------------------------|
D|-7-7-7-7--7-9--9-9--3b4--|
A|-7-7-7-7--7-9--9-9-------|
E|-5-5-5-5--5-7--7-7-------|

Tenho a idade que eu quiser
Tenho o tempo que vier
Tenho até a cara que você me der
Perfeito
Bom proveito
Escolha o meu defeito e me dê
Escolha o meu defeito e me dê
Composição de Jay Vaquer
Colaboração e revisão:
  • Marcos Desiderio
16 exibições
    • ½ Tom
    • Am
    • Bbm
    • Bm
    • Cm
    • C#m
    • Dm
    • Ebm
    • Em
    • Fm
    • F#m
    • Gm
    • G#m
  • Adicionar à lista

    0 comentários

    Ver todos os comentários

    Conseguiu tocar?

    0 Tocaram 0 Ainda não

    Grave um vídeo tocando Idade Se Eu Quiser (Neverland's Mix) e nos envie!

    00:00 / 00:00
    Outros vídeos desta música
    Repetir Qualidade Automático
    Outros vídeos desta música
    00:00 / 00:00
    Automático

    Cifra Club Pro

    Aproveite o Cifra Club com benefícios exclusivos e sem anúncios
    Cifra Club Pro
    Aproveite o Cifra Club com benefícios exclusivos e sem anúncios
    OK