Cifra Club

Nera

Jay Vaquer

Tab de baixo: Principal
Estrofes|
G|---------------------------|
D|---------------------------|
A|--5---6------5------6------|
E|----4-----2------4---------|

Refrão:
G|--------------------------------------------------------------|
D|--------------------------------------------------------------|
A|---------4h6--6-------------4h6------------2---------4h6------|
E|--6--4------------5--6--4---------5------------1--2-----------|

Vocalização:
G|-----------------------------------|
D|-----------------------------------|
A|--5-5-5-5-5-5-5-6-6-6-6-6-6-6-6----|
E|-----------------------------------|
00:00 / 00:00
Outros vídeos desta música
Repetir
Outros vídeos desta música
Composição de Jay Vaquer
Colaboração e revisão:
  • Renato Mestre
  • Dock Nunes
707 exibições

0 comentários

Ver todos os comentários

Conseguiu tocar?

0 Tocaram 0 Ainda não

Grave um vídeo tocando Nera e nos envie!

Entre para oCifra Club PRO

Tenha acesso a benefícios exclusivos no App e no Site

  • Chega de anúncios

  • Prioridade de compra em lançamentos

  • Mais recursos no app do Afinador

  • Atendimento Prioritário

  • Descontos nos produtos Cifra Club

  • Ajude a produzir mais conteúdo

00:00 / 00:00

Cifra Club Pro

Aproveite o Cifra Club com benefícios exclusivos e sem anúncios
Cifra Club Pro
Aproveite o Cifra Club com benefícios exclusivos e sem anúncios
OK