Cifra Club

Aprenda

Shearsus

Jean Dapesi

Cifra: Principal (violão e guitarra)
Tom: G
[Intro] D4/G  D11/F#  G/B  G4/C

E|------------------------------------------|
B|------------------------------------------|
G|--0---0---0---0----0---0---0---0----------|
D|----0-------0--------0---0---0---0--------|
A|--------0-------0-2-2-2-2-3-3-3-3---------|
E|-3-3-3-3-2-2-2-2--------------------------|

D4/G               D11/F#
O que há de belo nessa penumbra cinza?
G/B         G4/C
A lua cheia voltou!
D4/G        D11/F#
Talvez pra me acompanhar
G/B           G4/C
Pra me falar: "nem tudo acabou"

   G    F#4   Em   C/E
E|------------------------------------------|
B|------------------------------------------|
G|-0-----0----0-----0-----------------------|
D|-0-----0----2-----2-----------------------|
A|-2-----2----2-----3-----------------------|
E|-3-----2----0-----0-----------------------|

G       F#4          Em       C/E
  Felicidade esteja onde estiver
G                         F#4
  Sei que está ao seu lado
                         Em
Com teu perfume assinado
            C/E     
Manda uma carta assim que der

E|------------------------------------------|
B|------------------------------------------|
G|--0---0---0---0----0---0---0---0----------|
D|----0-------0--------0---0---0---0--------|
A|--------0-------0-2-2-2-2-3-3-3-3---------|
E|-3-3-3-3-2-2-2-2--------------------------|

( D4/G  D11/F#  G/B  G4/C )

D4/G           D11/F#
Me perguntava: "o que a vida quer?"
G/B         G4/C
Ansioso e impaciente
D4/G               D11/F#
Você sorria e na ponta do pé
G/B            G4/C
Me dizia ainda sorridente:

G       F#4          Em       C/E
 "Felicidade esteja onde estiver
G                        F#4
  Talvez no caminho errado
                    Em
Então quanto mais alto cantarmos
     C/E
Ela não perderá a fé"

( G  F#4  Em  C/E )

G
Eu sei que ela nos ouve
F#4
Eu sei que ela nos ouve
Em
Lua eu sei que ela nos ouve
C/E
Agora eu sei

Ela nos ouve

E|------------------------------------------|
B|------------------------------------------|
G|--0---0---0---0----0---0---0---0----------|
D|----0-------0--------0---0---0---0--------|
A|--------0-------0-2-2-2-2-3-3-3-3---------|
E|-3-3-3-3-2-2-2-2--------------------------|
Composição de Anderson Pereira da Silva Jenuino
Colaboração e revisão:
  • Anderson Gaficemor
1 exibições
    • ½ Tom
    • A
    • Bb
    • B
    • C
    • Db
    • D
    • Eb
    • E
    • F
    • F#
    • G
    • Ab
  • Adicionar à lista

    0 comentários

    Mostrar mais comentários

    Conseguiu tocar?

    0 Tocaram 0 Ainda não

    Grave um vídeo tocando Shearsus e mande pra gente!

    00:00 / 00:00
    outros vídeos desta música
    repetir qualidade Automático
    Outros vídeos desta música
    00:00 / 00:00
    Automático

    Cifra Club Pro

    Aproveite o Cifra Club com benefícios exclusivos e sem anúncios
    Cifra Club Pro
    Aproveite o Cifra Club com benefícios exclusivos e sem anúncios
    OK