Notificações Amigos pendentes

      Jeff Buckley

      Last Goodbye

      13.800 exibições
      Tom: G
      This is for normal people who couldn't be stuffed learning
      50 new chord and tune down every time you want to play this song.
      The way Jeff plays it only sounds good with a band!!!!!,
      and so do some bits of this, Sing along - it will sound better.
      
      TIP - Paste this into notepad.
      ----------------------------------------------------------
      
      You can play this bit if you like I usually start on Intro (1).
      just doesn't sound right without allot of delay!!
      
      strum as fast as you can and slide between these.
      
         A   C   G    D
      |------------------|
      |--2-/-5-/-12-\-7--|
      |--2-/-5-/-12-\-7--|
      |--2-/-5-/-12-\-7--|
      |------------------|
      |------------------|
      
      
      Intro. (1)
      
      
        D     Ds4       D
      |-2h3---3---3-3---2-2---2-2-|
      |-3-----3---3-3---3-3---3-3-|
      |-2-----2---2-2---2-2---2-2-|
      |-0-----0---0-0---0-0---0-0-|  x 4
      |---------------------------|
      |---------------------------|
      
      
      Intro. (2)
      
        A                     C           G                     D
      |---------------------------------|----------------------------------|
      |---------------------------------|----------------------------------|
      |-6-6---6-5---6-6---6-6/9---9--9--|-4-4---4-4---4-4---4-4/11---11-11-|
      |-7-7---7-7---7-7---7-7/10--10-10-|-5-5---5-5---5-5---5-5/12---12-12-|  x 3
      |-7-7---7-7---7-7---7-7/10--10-10-|-5-5---5-5---5-5---5-5/12---12-12-|
      |-0-5---0-5---0-5---0-5/8---8--8--|-0-3---0-3---0-3---0-3/10---10-10-|
      
      
        A            G
      |-0----------|-3----------|
      |-2----------|-3----------|
      |-2----------|-0----------|
      |-2----------|-0----------|
      |-0----------|-2----------|
      |------------|-3----------|
      
      
      
      VERSE 1.
      
      Intro (1)
      This is our last goodbye,
                Bm               A       Em7
      I hate to feel the love between us die,
              G
      But its over.
                D
      Just hear this and then i'll go,
          A
      You gave me more to live for,
      G                     Intro (1)
      More than you'll ever know.
      
      VERSE 2.
      
      intro (1)
      This is our last embrace,
             Bm              A         Em7
      must I dream and always see your face,
          G                A         Ds2
      Why can't we overcome this wall,
           A                               G
      Baby maybe its just because I didn't know you at all.
      
      
      Fill.
      
      
      |-------------------------|---------------------------------|
      |-------------------------|---------------------------------|
      |-5-5---5-5-5-5---5-5-5-5-|-5-5---5-5-5-5---5-5/10-10-10-10-|
      |-3-3---3-3-3-3---3-3-3-3-|-3-3---3-3-3-3---3-3/0--0--0--0--|
      |-3-3---3-3-3-3---3-3-3-3-|-3-3---3-3-3-3---3-3/8--8--8--8--|
      |-------------------------|---------------------------------|
      
      
      This bit is the same as Intro (2)
      
      
        A                     C           G                     D
      |---------------------------------|----------------------------------|
      |---------------------------------|----------------------------------|
      |-6-6---6-5---6-6---6-6/9---9--9--|-4-4---4-4---4-4---4-4/11---11-11-|
      |-7-7---7-7---7-7---7-7/10--10-10-|-5-5---5-5---5-5---5-5/12---12-12-|  x 3
      |-7-7---7-7---7-7---7-7/10--10-10-|-5-5---5-5---5-5---5-5/12---12-12-|
      |-0-5---0-5---0-5---0-5/8---8--8--|-0-3---0-3---0-3---0-3/10---10-10-|
      
      
        Kiss me....           Please....  Kiss me....               kiss me
        out of desire         Baby not    consolation           oh you know it
        Makes me so angry       cause' I  know in time
      
      
        A                        G
      |-0----------------------|-3-----------------------|
      |-2----------------------|-3-----------------------|
      |-2----------------------|-0-----------------------|
      |-2----------------------|-0-----------------------|
      |-0----------------------|-2-----------------------|
      |------------------------|-3-----------------------|
      
        I'll only make you cry,  This is our last goodbye
      
      Now strum G for 15 barrs while the violine does its thing. (or Skip it!)
      
      16th barr
      |-----
      |-15--
      |-14--
      |-12--   strum this rapidly
      |-12--
      |-----
      
      Bm          A    G      Bm
      ooohhhhhhh..*.....
                  A   Em  G   Bm
      ooohhhhhhh..*
          G
      aaaahhhhhhhhhhh
      
      D          G    A             G          D
      Did You say, no this can't happen to me.
                   G           A         G
      Did you rush to the phone to call.
            D            G       A            G
      Was a voice unkind, in the back of your mind,
             Em7     Bm7        Am       G
      sayin' may.....hey......be..........
                 C9
      You didn't know him at all,
                 G
      You didn't know him at all, oh - oh, you didn't know.
      
      Play Intro (2) X 2....then
      
      
               see intro (2)
      Well the bells out in the church tower chime,
              C9               G             A           G
      Burning clues into this heart of mine,
               C9              D
      thinking so hard, on her soft eyes,
              C9                D
      and the memory, of our sighs....     That its all
      
      ov............................................er                                   ov....
      
      |----------------------------------------------------------------------------------------|
      |----------------------------------------------------------------------------------------|
      |-14/17-17-17-17-17-17-17-17-17-17-17\10-10-10/17-17-17-17-17-17-17-17-17-17\10-10-10-10-|
      |----------------------------------------------------------------------------------------|
      |-12/15-15-15-15-15-15-15-15-15-15-15\8--8--8-/15-15-15-15-15-15-15-15-15-15\8--8--8--8--|
      |----------------------------------------------------------------------------------------|
      
      
       ......................................er         A  Em7
      |------------------------------|---------------------0-|
      |------------------------------|---------------------3-|
      |-7-7-7-7-7-7-6-5-5/6-6/9-9/11-|-9\7-7/9--9\7-7\4-2--0-|
      |------------------------------|------------------2--2-|
      |-5-5-5-5-5-5-4-3-3/4-4/7-7/9--|-7\5-5/7--7\5-5\2-0--2-|
      |------------------------------|---------------------0-|
      
      
      
      Here are all the chords you'll see in the lyrics.
      
      
        Bm  Bm7  A  Am  Em7  Em  G  D  Ds2  C9
      |-2----2---0---0---0---0---3--2---0---3--|
      |-3----3---2---1---3---0---3--3---3---3--|
      |-4----2---2---2---0---0---0--2---2---0--|
      |-4----4---2---2---2---2---0--0---0---2--|
      |-2----2---0---0---2---2---2--0---0---3--|
      |------------------0---0---3-------------|
      
        Composição: Jeff Buckley

        Comentários 0

        140 .
        140 cancelar

        conseguiu tocar?

        covers

        Grave um vídeo tocando Last Goodbye e mande pra gente!

        Ex.: http://www.youtube.com/watch?v=0IvSvIwGdwk
        ver covers de outras músicas »
        0:00 / 0:00

        Capítulos

          2 versões de violão dificuldade exibições contribuição e correção
          2 versões de guitarra dificuldade exibições contribuição e correção
          2 versões de cavaco dificuldade exibições contribuição e correção
          2 versões de teclado dificuldade exibições contribuição e correção
          3 versões de baixo exibições contribuição e correção
          2 versões de Guitar Proformatodownloadscontribuição
          play/pausefechar subir/descer velocidade
          6ª corda E5ª corda A4ª corda D3ª corda G2ª corda B1ª corda E
            acordes
            publicidade
            fechar
            ok