Cifra Club

Satisfied Mind

Jeff Buckley

Cifra: Principal (violão e guitarra)
tom: A
Intro

e|----------------------------------------------------------|
B|--------5-----5^7---5---5-5-3-----------5-----------------|
G|-6-----6------6^7---6---4-4-2------2---6----6^7-7-6-7-6---|
D|-7----7-------7^7---7---6-6-4-----4---7-----7-----------7-|
A|-----0-----0--0---0---0----------5---0----0---------------|
E|----------------------------------------------------------|

e|-------------------------------------------5--------------|
B|----5-----------5---5-----------3-------------7-5---------|
G|---6-6---6-----4-4-4--4---4-----2-2----9-7----------------|
D|--7----7---7--6---6-----6---6---4---4-------------7-------|
A|-0------------------------------------------------0-0-----|
E|----------------------------------------------------------|

e|--------------------------------------------------------------|
B|--5^7--7-5-5--7--9--10---10--9--9-7-7--------8b10-------------|
G|--6^7--7-6-6--7--9--11---11--9--9-7-7--7b9^5------7b9b7--5----|
D|--7^7--7-7-7--7--9--12---12--9--9-7-7----------------------7--|
A|-------0---0--------------------------------------------------|
E|--------------7--9--12---12--9--9-7-7-------------------------|

e|--------------------------------------------------------------|
B|-5^7--5^7--5^5-----------------------------------7------------|
G|-5^7--5^7--5^6----------9------7---7---7----7------7----------|
D|-5^7--5^7--5^7----7-11--------6---6---6-----7--7--------------|
A|----------------0-------7--6>7---7---7----5-------------------|
E|------------------5-9-----------------------------------------|

e|--------------------------------------------------------------|
B|-----------2---2-----3----3-----5---5------8---8--------------|
G|--7-6-4-2---2----------0---------0----------------------------|
D|--------2-2--2-----4-----4----5---5------9---9---9------------|
A|--5-4-2-0--------0-----------0---------0-----------0----------|
E|--------------------------------------------------------------|

e|--------------------------------------------------------------|
B|-----10----10-------12----8---8--------8----0---5>------------|
G|-----------------------------0-0---0--0----0----5>------------|
D|--11----11----11>12-----9---9---9-9--9----7-------------------|
A|--------------------------------------------------------------|
E|--------------------------------------------------------------|

Verse chords just go like this..




e|-------------------------------------------------|
B|--7---5---5---7---5----5-7-5---------------------|
G|--7---6---4---7---6----6-7-6---------------------|
D|--7---7---6---7---7----7-7-7---------------------|
A|--5---7---7---5---7----7-5-7---------------------|
E|-------------------------------------------------|

e|------------------------|
B|--5---3---7---5---------|
G|--4---2---7---6---------|
D|--6---4---7---7---------|
A|--7---5---5---7---------|
E|------------------------|


Here are the lyrics.

How many times have you heard someone say
If I had money, I'd do things my way,
But little they know that it's so hard to find
One rich man with a satisfied mind.

Money can't buy back your youth when you're old
A friend when you're lonely, or peace to your soul.
The wealthiest person is a pauper at times
Compared to the man with a satisfied mind.

When my life is over and my time has run out.
My friends and my loved ones, I will leave them no doubt.
But one thing's for certain, when it comes my time
I'll leave this old world with a satisfied mind.
Satisfied mind.
00:00 / 00:00
Outros vídeos desta música
Repetir
Outros vídeos desta música
Composição de J. Hayes / Jack Rhodes / Joseph Hayes
1.500 exibições
    • ½ Tom
    • A
    • Bb
    • B
    • C
    • Db
    • D
    • Eb
    • E
    • F
    • F#
    • G
    • Ab
  • Adicionar à lista

    0 comentários

    Ver todos os comentários

    Conseguiu tocar?

    0 Tocaram 0 Ainda não

    Grave um vídeo tocando Satisfied Mind e nos envie!

    Entre para oCifra Club PRO

    Tenha acesso a benefícios exclusivos no App e no Site

    • Chega de anúncios

    • Prioridade de compra em lançamentos

    • Mais recursos no app do Afinador

    • Atendimento Prioritário

    • Descontos nos produtos Cifra Club

    • Ajude a produzir mais conteúdo

    00:00 / 00:00

    Cifra Club Pro

    Aproveite o Cifra Club com benefícios exclusivos e sem anúncios
    Cifra Club Pro
    Aproveite o Cifra Club com benefícios exclusivos e sem anúncios
    OK