Cifra Club

Um Centimetro

Jefferson Moraes

Cifra: Principal (violão e guitarra)
tom: Ab (forma dos acordes no tom de G) Capotraste na 1ª casa
[Intro] Em7  D/F#  G  C9

[Tab - Solo]

E|------7----------------7-8-10-------------|
B|-8-10---8---10----8-10--------8-----------|
G|------------------------------------------|
D|------------------------------------------|
A|------------------------------------------|
E|------------------------------------------|

[Primeira Parte]

Em7    D/F#       
    Vamos por partes 
G       C9
  Te falo meu nome 
        Em7
Você o seu
  D/F#            C9
Que prazer te conhecer
Em7               D/F#    
    Me fala mais de você 
G             C9
  O que prefere fazer 
Em7      D/F#         
    Balada ou parque? 
   C9
Você escolhe

[Pré-Refrão]

      C9         G         
E eu vou lá, eu vou lá 
D/F#                   Em7
     Te dar um beijo e um abraço
    C9         G         
Eu vou lá, eu vou lá
   D/F#
E vamos ocupar o mesmo espaço

[Refrão]

   G                  D/F#   
E vai chegando perto de mim 
                    Am7          
E quando faltar um centímetro 
      C
Feche os olhos 
         G                 
E deixa rola deixa
                 D/F# 
Deixa o beijo durar 
         Am7      
E deixa rola deixa
               C
Deixa o beijo durar

[Solo] G  D  Am7  C9

[Tab - Solo]

E|------------------------------------------|
B|-8--8-8-8p7------8-8-8p7------------------|
G|------------9-7-------| --7-9p7-----9p7-7--|
D|-------------------------------10--------9|
A|------------------------------------------|
E|------------------------------------------|

[Primeira Parte]

Em7        D/F#       
    Vamos por partes 
G          C9
  Eu falo meu nome 
        Em7
Você o seu
  D/F#            C9
Que prazer te conhecer
Em7               D/F#    
    Me fala mais de você 
G             C9
  O que prefere fazer 
Em7      D/F#         
    Balada ou parque? 
   C9
Você escolhe

[Pré-Refrão]

      C9         G         
E eu vou lá, eu vou lá 
D/F#                   Em7
     Te dar um beijo e um abraço
    C9         G         
Eu vou lá, eu vou lá
   D/F#
E vamos ocupar o mesmo espaço

[Refrão]

   G                  D/F#   
E vai chegando perto de mim 
                    Am7          
E quando faltar um centímetro 
      C
Feche os olhos 
         G                 
E deixa rola deixa
                 D/F# 
Deixa o beijo durar 
         Am7      
E deixa rola deixa
               C
Deixa o beijo durar

   G                  D/F#   
E vai chegando perto de mim 
                    Am7          
E quando faltar um centímetro 
      C
Feche os olhos 
         G                 
E deixa rola deixa
                 D/F# 
Deixa o beijo durar 
         Am7      
E deixa rola deixa
               C
Deixa o beijo durar

[Primeira Parte]

Em7    D/F#       
    Vamos por partes 
G       C9
  Te falo meu nome 
     Em7
Você o seu
D/F#                C9
     Que prazer te conhecer

[Tab - Solo]

E|-7-8-10--------7-----------7-8-10--------7--|
B|--------10--10---10--8-7-8--------10--10---8|
G|--------------------------------------------|
D|--------------------------------------------|
A|--------------------------------------------|
E|--------------------------------------------|
Composição de Ivo Mozart / Lucas Santos / Rafael Torres
Colaboração e revisão:
85.667 exibições
    • ½ Tom
    • A
    • Bb
    • B
    • C
    • Db
    • D
    • Eb
    • E
    • F
    • F#
    • G
    • Ab
  • Adicionar à lista

    0 comentários

    Ver todos os comentários

    Conseguiu tocar?

    10 Tocaram 3 Ainda não

    Grave um vídeo tocando Um Centimetro e nos envie!

    00:00 / 00:00
    Outros vídeos desta música
    Repetir Qualidade Automático
    Outros vídeos desta música
    00:00 / 00:00
    Automático

    Cifra Club Pro

    Aproveite o Cifra Club com benefícios exclusivos e sem anúncios
    Cifra Club Pro
    Aproveite o Cifra Club com benefícios exclusivos e sem anúncios
    OK