Cifra Club

Aprenda

Goodnight Moon

Jem

Cifra: Principal (violão e guitarra)
tom: C
E|-------------------------------|
B|-------------------------------|
G|-------------------------------|  (3x)
D|-------------------------------|  
A|--------7--8--7----------------|
E|--5--8-----------8--7--5-------|

E|-------------------------------|
B|-------------------------------|
G|-------------------------------|
D|-------------------------------|  
A|----0-0-0-0-0-0-0-0-0----------|
E|-------------------------------|

                      Am
There's a nail in the door
                         G
And there's glass on the lawn
             Dm
Tacks on the floor
              Am
And the TV is on
      C                 Dm
And I always sleep with my guns
            E  E7
When you're gone

                       Am
There's a blade by the bed
                  G
And a phone in my hand
             Dm
A dog on the floor
                     Am
And some cash on the nightstand
         C                      Dm
When I'm all alone the dreaming stops
                 E7
And I just can't stand

              Dm
What should I do I'm just a little baby
            Am
What if the lights go out and maybe
             Dm
And then the wind just starts to moan
            B7                   E7
Outside the door he followed me home
               Dm
Well goodnight moon I want the sun
                 Am
If it's not here soon I might be done
                               E7
No it won't be too soon 'til I say
          Am
Goodnight moon

RIFF (Tocado no segundo verso)
E|----------------------------/-17--17/15--15/21--21/12---|
B|---13---------------/-15--15----------------------------|
G|------14---14/12--12------------------------------------|
D|--------------------------------------------------------|
A|--------------------------------------------------------|
E|--------------------------------------------------------|

                       Am
There's a shark in the pool
                   G
And a witch in the tree
            Dm
A crazy old neighbour
              Am
And he's been watching me
            C                  Dm
And there's footsteps loud and strong
                E  E7
Coming down the hall
                      Am
Something's under the bed
                    G
Now it's out in the hedge
                    Dm
There's a big black crow
              Am
Sitting on my window ledge
    C                Dm
And I hear something scratching
             E7
Through the wall

                 Dm
Oh what should I do I'm just a little baby
            Am
What if the lights go out and maybe
       Dm
I just hate to be all alone
            B7                  E7
Outside the door he followed me home
               Dm
Now goodnight moon I want the sun
                 Am
If it's not here soon I might be done
                               E7
No it won't be too soon 'til I say
          Am
Goodnight moon

[Solo]  Am  G  Dm  Am  C  Dm  E7

E|-----------------------------------------------------|
B|-----------------------------------------------------|
G|-----------------------------------------------------|
D|-----------8/10----9h10p9---10/12---10--12-----------|
A|-------7------------------------------------10h12----|
E|----8------------------------------------------------|

E|-----------------------------------------------------|
B|-----------------------------------------------------|
G|-----------------------------------------------------|
D|--------------5--------------------------------------|
A|----3~---5/7-----7/8---7--8-----10----13----17-------|
E|---------------------------------x-----x-----x-------|
   
RIFF    
E|----------------------------/-17--17/15--15/21--21/12---|
B|---13---------------/-15--15----------------------------|
G|------14---14/12--12------------------------------------|
D|--------------------------------------------------------|
A|--------------------------------------------------------|
E|--------------------------------------------------------|
    
       Am
Well you're up so high
            G
How can you save me
                    Dm
When the dark comes here
           Am
Tonight to take me up
            C             Dm
To my front walk and into bed
                   E7
Where it kisses my face and eats my head

                 Dm
Oh what should I do I'm just a little baby
            Am
What if the lights go out and maybe
             Dm
And then the wind just starts to moan
            E7
Outside the door he followed me home
               Dm
Now goodnight moon I want the sun
                 Am
If it's not here soon I might be done
                                  E7
No it won't be too soon 'til I say
          Am
Goodnight moon 
                                 E7
No it won't be too soon 'til I say
          Am
Goodnight moon
Composição de Ambrosia Parsley / Duke Mcvinnie
Colaboração e revisão:
  • Douglas Mattive
5 exibições
    • ½ Tom
    • A
    • Bb
    • B
    • C
    • Db
    • D
    • Eb
    • E
    • F
    • F#
    • G
    • Ab
  • Adicionar à lista

    0 comentários

    Ver todos os comentários

    Conseguiu tocar?

    0 Tocaram 0 Ainda não

    Grave um vídeo tocando Goodnight Moon e nos envie!

    00:00 / 00:00
    outros vídeos desta música
    repetir qualidade Automático
    Outros vídeos desta música
    00:00 / 00:00
    Automático

    Cifra Club Pro

    Aproveite o Cifra Club com benefícios exclusivos e sem anúncios
    Cifra Club Pro
    Aproveite o Cifra Club com benefícios exclusivos e sem anúncios
    OK