Cifra Club

Aprenda

Maybe I'm Amazed

Jem

Cifra: Principal (violão e guitarra)
tom: C
Introdução
e|-----------1------------1------------1--------------1--------------1-------|
B|---------------------------------------------------------------------------|
G|----3---3----------2--2--------1-1----------1--1--------0---3--3-----------|
D|-3--------------3----------3--------------3--------------------------------|
A|---------------------------------------------------------------------------|
E|---------------------------------------------------------------------------|

e|---------------1-----------------------|
B|---------------------------------------|
G|-------3---3---------------------------|
D|---4---------------3-------------------|
A|---------------------------------------|
E|---------------------------------------|

F         C                     G               D
Maybe I'm amazed at the way you love me all the time
F         C                   G
Maybe I'm afraid of the way I love you
F         C                     G                D
Maybe I'm amazed at the way you pulled me out of time
F                C
And hung me on a line
Eb                      F                 G
Maybe I'm amazed at the way I really need you

[Start strumming here]

A                                A7
Maybe I'm a girl and maybe I'm a lonely girl

Who's in the middle of something
D                       A
That she doesn't really understand

A                                     A7
Maybe I'm a girl and maybe you're the only man

Who could ever help me
D                       A
Baby won't you help me understand

[Play verse as fill]
e|------------------------------------------------------------|
B|------------------------------------------------------------|
G|--------5--7--5--7/9--7--5----------------------------------|
D|---5h7----------------------7--5---7/9--10--9--7------------|
A|------------------------------------------------------------|
E|------------------------------------------------------------|

e|------------------------------------------------------------|
B|------------------------------------------------------------|
G|---------5--7--5--7/9--7--5---------------------------------|
D|----5h7----------------------7--5---7/9--9---5--------------|
A|------------------------------------------------------------|
E|------------------------------------------------------------|

e|------------------------------------------------------------|
B|------------------------------------------------------------|
G|---------5--7--5--7/9--7--5---------------------------------|
D|----5h7----------------------7--5--7/9--10--9--7------------|
A|------------------------------------------------------------|
E|------------------------------------------------------------|

e|------------------------------------------------------------|
B|------------------------------------------------------------|
G|------------------------------------------------------------|
D|-7-7-8-7-5---8/10-10-10-10-10-10-10-10--8--8--7--8--7--5----|
A|------------------------------------------------------------|
E|------------------------------------------------------------|

F         C                     G               D
Maybe I'm amazed at the way you love me all the time
F         C                   G
Maybe I'm afraid of the way I love you
F         C                     G                D
Maybe I'm amazed at the way you pulled me out of time
F                C
And hung me on a line
Eb                      F                 G
Maybe I'm amazed at the way I really need you

[Repeat chorus]
[Repeat last verse]
Composição de Paul McCartney
6.986 exibições
    • ½ Tom
    • A
    • Bb
    • B
    • C
    • Db
    • D
    • Eb
    • E
    • F
    • F#
    • G
    • Ab
  • Adicionar à lista

    0 comentários

    Ver todos os comentários

    Conseguiu tocar?

    2 Tocaram 0 Ainda não

    Grave um vídeo tocando Maybe I'm Amazed e nos envie!

    00:00 / 00:00
    outros vídeos desta música
    repetir qualidade Automático
    Outros vídeos desta música
    00:00 / 00:00
    Automático

    Cifra Club Pro

    Aproveite o Cifra Club com benefícios exclusivos e sem anúncios
    Cifra Club Pro
    Aproveite o Cifra Club com benefícios exclusivos e sem anúncios
    OK