Notificações Amigos pendentes

      JerryC

      Canon Rock

      214.183 exibições
      Tom: F#
      W                    H          H             H          H           
      
      ----------------
      ---|
      ----------------
      --------|
      ----------------
      --------| 
      
      ----------------
      ---|--19~--------17~--------|--15~--------14~--------| 
      
      ----------------
      ---|
      ----------------
      --------|
      ----------------
      --------| 
      
      ----------------
      ---|
      ----------------
      --------|
      ----------------
      --------| 
      
      ----------------
      ---|
      ----------------
      --------|
      ----------------
      --------| 
      
      ----------------
      ---|
      ----------------
      --------|
      ----------------
      --------| 
       
       
      
          H          H             H          Q      E   E
      ----------------
      --------|
      ----------------
      ------------| 
      --12~--------10~--------|--12~--------14~----15--17--| 
      
      ----------------
      --------|
      ----------------
      ------------| 
      
      ----------------
      --------|
      ----------------
      ------------| 
      
      ----------------
      --------|
      ----------------
      ------------| 
      
      ----------------
      --------|
      ----------------
      ------------| 
       
       
      
                            |---3---|                                          
      
      
          H          E   E   S   S   S  E      Q.       S   S  E   E   E   E
      --14~------------15--14h-15p-14-----|----------------
      ------14--17--19--| 
      -------------17
      ----------------
      -17--|--15~------17p-15-14--------------| 
      
      ----------------
      
      ----------------
      ----|
      ----------------
      
      ----------------
      --| 
      
      ----------------
      
      ----------------
      ----|
      ----------------
      
      ----------------
      --| 
      
      ----------------
      
      ----------------
      ----|
      ----------------
      
      ----------------
      --| 
      
      ----------------
      
      ----------------
      ----|
      ----------------
      
      ----------------
      --| 
       
       
      
             |--3--|                  |--3--|       
      
      
          E   S  S  S  E   E   E   E   S  S  S  E
      --15--14-15-14-----15--14----------------
      ---| 
      ---------------17----------17--15-17-15-----| 
      
      ----------------
      
      ----------------
      --------14--| 
      
      ----------------
      
      ----------------
      ------------| 
      
      ----------------
      
      ----------------
      ------------| 
      
      ----------------
      
      ----------------
      ------------| 
       
       
         E   E   E   E   T   T  T   T  T   T  T   T  T   T  T   T  T   T  T   T   
      
      ----------------
      
      ----------------
      
      ----------------
      
      ----------------
      ----------| 
      --------------15--14h-15-14h-15-14h-15-14h-15-14h-15-14h-15-14h-15-14h-15-| 
      --16--14--12
      ----------------
      
      ----------------
      
      ----------------
      --------------| 
      
      ----------------
      
      ----------------
      
      ----------------
      
      ----------------
      ----------| 
      
      ----------------
      
      ----------------
      
      ----------------
      
      ----------------
      ----------| 
      
      ----------------
      
      ----------------
      
      ----------------
      
      ----------------
      ----------| 
       
       
             PM PM       PM PM         PM PM       PM PM         PM PM    PM    PM   
      
         Q    E  E  E  E  E  E     Q    E  E  E  E  E  E     Q    E  E  E  E  E  E
      ----------------
      ---------|
      ----------------
      ---------|
      ----------------
      ---------| 
      -------------8--7--------|-------------5--7--------|-------------2-----3-----| 
      --7
      ----------------
      ------|
      ----------------
      ---------|--4
      ----------------
      ------| 
      --7
      ----------------
      ------|--7
      ----------------
      ------|--4
      ----------------
      ------| 
      --5----5--5--------5--5--|--7
      ----------------
      0--0--|--2----2--2-----2-----2--| 
      
      ----------------
      ---------|--5----5--5--------------|
      ----------------
      ---------| 
       
       
             PM PM    PM    PM         PM PM PM                  PM PM               
      
         Q    E  E  E  E  E  E     Q    E  E  E  Q     E     Q    E  E  E  E  E  E
      ----------------
      ---------|
      ----------------
      ---------|
      ----------------
      ---------| 
      
      ----------------
      ---------|
      ----------------
      ---------|-------------8--7--5-----| 
      
      ----------------
      ---------|
      ----------------
      4S----6--|--7
      ----------------
      ---7--| 
      --4----------2-----4-----|--5-------------5S----7--|--7
      ----------------
      ------| 
      --4----------2-----4-----|--5
      ----------------
      ------|--5----5--5--------------| 
      --2----2--2--0--0--2--2--|--3----3--3--3-----------|
      ----------------
      ---------| 
       
       
             PM PM                       PM PM                 
      
         Q    E  E  E   E   E  E     Q    E  E  E   E   E  E
      ----------------
      -----------|
      ----------------
      -----------| 
      
      ----------------
      -----------|
      ----------------
      -----------| 
      -------------4S--6h--7--6--|-------------6S--7h--9--7--| 
      --5
      ----------------
      --------|--7
      ----------------
      --------| 
      --5
      ----------------
      --------|--7
      ----------------
      --------| 
      --3----3--3
      ----------------
      |--5----5--5
      ----------------
      | 
       
       
             PM PM       PM PM         PM PM       PM PM         PM PM    PM    PM   
      
         Q    E  E  E  E  E  E     Q    E  E  E  E  E  E     Q    E  E  E  E  E  E
      ----------------
      ---------|
      ----------------
      ---------|
      ----------------
      ---------| 
      -------------8--7--------|-------------5--7--------|-------------2-----3-----| 
      --7
      ----------------
      ------|
      ----------------
      ---------|--4
      ----------------
      ------| 
      --7
      ----------------
      ------|--7
      ----------------
      ------|--4
      ----------------
      ------| 
      --5----5--5--------5--5--|--7
      ----------------
      0--0--|--2----2--2-----2-----2--| 
      
      ----------------
      ---------|--5----5--5--------------|
      ----------------
      ---------| 
       
       
             PM PM    PM    PM         PM PM PM                  PM PM               
      
         Q    E  E  E  E  E  E     Q    E  E  E  Q     E     Q    E  E  E  E  E  E
      ----------------
      ---------|
      ----------------
      ---------|
      ----------------
      ---------| 
      
      ----------------
      ---------|
      ----------------
      ---------|-------------8--7--5-----| 
      
      ----------------
      ---------|
      ----------------
      4S----6--|--7
      ----------------
      ---7--| 
      --4----------2-----4-----|--5-------------5S----7--|--7
      ----------------
      ------| 
      --4----------2-----4-----|--5
      ----------------
      ------|--5----5--5--------------| 
      --2----2--2--0--0--2--2--|--3----3--3--3-----------|
      ----------------
      ---------| 
       
       
             PM PM                       PM PM PM                                   
        Q    E  E  E   E   E  E     Q    E  E  E    Q.          W                   
      
      ----------------
      -----------|
      ----------------
      ----------|
      ----------------
      -----| 
      
      ----------------
      -----------|
      ----------------
      ----------|--19~
      ----------------
      | 
      -------------4S--6h--7--6--|
      ----------------
      6~------|
      ----------------
      -----| 
      --5
      ----------------
      --------|--7
      ----------------
      -------|
      ----------------
      -----| 
      --5
      ----------------
      --------|--7
      ----------------
      -------|
      ----------------
      -----| 
      --3----3--3
      ----------------
      |--5----5--5--5------------|
      ----------------
      -----| 
       
       
                                                                            PM  PM   
      
          H         H            H         E   Q.           H          Q     E   E
      ----------------
      ------|
      ----------------
      ----------|
      ----------------
      -----------| 
      --17\
      ----------------
      -|--15~-----------15br------|--14~
      ----------------
      ------| 
      
      ----------------
      ------|
      ----------------
      ----------|-------------14------------| 
      
      ----------------
      ------|
      ----------------
      ----------|
      ----------------
      ---12--12--| 
      
      ----------------
      ------|
      ----------------
      ----------|
      ----------------
      -----------| 
      
      ----------------
      ------|
      ----------------
      ----------|
      ----------------
      -----------| 
       
       
      
                    |-----3-----|                                
      
          H         Q     Q     Q        Q     Q     H           
      
      ----------------
      ---------------|
      ----------------
      ---------| 
      
      ----------------
      ---------------|--------15---------------| 
      --/16~--------L----14----12----|--14----------11~--------| 
      
      ----------------
      ---------------|
      ----------------
      ---------| 
      
      ----------------
      ---------------|
      ----------------
      ---------| 
      
      ----------------
      ---------------|
      ----------------
      ---------| 
       
       
      
                     |-----3-----|                                 
      
      
           H          Q     Q     Q        H.             E    E
      ----------------
      
      ----------------
      |
      ----------------
      ----------| 
      
      ----------------
      
      ----------------
      |--14b------------15S--17--| 
      --/16~--------16----14----12----|
      ----------------
      ----------| 
      
      ----------------
      
      ----------------
      |
      ----------------
      ----------| 
      
      ----------------
      
      ----------------
      |
      ----------------
      ----------| 
      
      ----------------
      
      ----------------
      |
      ----------------
      ----------| 
       
       
         H         E   Q.            H.            Q        H         E   Q.          
      
      --14~-----------14pbr------|----------------
      ------|
      ----------------
      -----------| 
      
      ----------------
      -----------|--17~
      ----------------
      -|--15~-----------15pbr------| 
      
      ----------------
      -----------|
      ----------------
      ------|
      ----------------
      -----------| 
      
      ----------------
      -----------|
      ----------------
      ------|
      ----------------
      -----------| 
      
      ----------------
      -----------|
      ----------------
      ------|
      ----------------
      -----------| 
      
      ----------------
      -----------|
      ----------------
      ------|
      ----------------
      -----------| 
       
       
         Q     Q     Q     Q        Q      Q     Q     Q       
      
      --------14----17~---------|--19~----17----15----17b----| 
      --14----------------
      ------|
      ----------------
      ------------| 
      
      ----------------
      ----------|
      ----------------
      ------------| 
      
      ----------------
      ----------|
      ----------------
      ------------| 
      
      ----------------
      ----------|
      ----------------
      ------------| 
      
      ----------------
      ----------|
      ----------------
      ------------| 
       
       
         Q      Q     Q     Q        Q      Q     Q     Q      
      
      --17~----15----14----17----|--19~----17----15----19----| 
      ----------------
      -----------|
      ----------------
      -----------| 
      
      ----------------
      -----------|
      ----------------
      -----------| 
      
      ----------------
      -----------|
      ----------------
      -----------| 
      
      ----------------
      -----------|
      ----------------
      -----------| 
      
      ----------------
      -----------|
      ----------------
      -----------| 
       
       
         W                       Q    Q    Q    Q       H         Q    Q      
      
      --19pbr~----------------
      |
      ----------------
      ------|
      ----------------
      ------| 
      
      ----------------
      --------|
      ----------------
      ------|
      ----------------
      ------| 
      
      ----------------
      --------|--7----6----7---------|
      ----------------
      -6----| 
      
      ----------------
      --------|
      ----------------
      ------|--7~--------9---------| 
      
      ----------------
      --------|
      ----------------
      -9----|
      ----------------
      ------| 
      
      ----------------
      --------|
      ----------------
      ------|
      ----------------
      ------| 
       
       
             PM PM                                                              
      
                                                           |--3--|              
      
        Q    E  E  Q    Q        W                    Q    E  E  E  Q    Q      
      
      ----------------
      -------|
      ----------------
      -----|
      ----------------
      ----------| 
      
      ----------------
      --7----|--10b
      ----------------
      |--8----7--8--7-------8----| 
      --7----6--6--7---------|
      ----------------
      -----|
      ----------------
      9---------| 
      
      ----------------
      -------|
      ----------------
      -----|
      ----------------
      ----------| 
      
      ----------------
      -------|
      ----------------
      -----|
      ----------------
      ----------| 
      
      ----------------
      -------|
      ----------------
      -----|
      ----------------
      ----------| 
       
       
                                                                PM PM PM PM           
        E  E  E  E  H            Q    Q    Q    Q         Q     E  E  E  E    Q       
      
      ----------------
      --------|
      ----------------
      ------|
      ----------------
      --------------| 
      --7
      ----------------
      -----|
      ----------------
      ------|
      ----------------
      --------------| 
      -----9--7---------------|
      ----------------
      -7----|--6b
      ----------------
      --------| 
      -----------9--7~--------|--9----7----5---------|----------7
      ----------------
      ---| 
      
      ----------------
      --------|
      ----------------
      ------|-------------7--5--4----------| 
      
      ----------------
      --------|
      ----------------
      ------|
      ----------------
      ------5~----| 
       
       
      
         Q    Q    Q    Q       H         Q    Q       E  E  E   E    E   E   E   E
      ----------------
      ------|
      ----------------
      ------|--------7--10S--14--10----------| 
      
      ----------------
      ------|
      ----------------
      ------|-----7
      ----------------
      --12------| 
      --7----6----7---------|
      ----------------
      -6----|--7
      ----------------
      ---------11--| 
      
      ----------------
      ------|--7~--------9---------|
      ----------------
      
      ----------------
      | 
      
      ----------------
      -9----|
      ----------------
      ------|
      ----------------
      
      ----------------
      | 
      
      ----------------
      ------|
      ----------------
      ------|
      ----------------
      
      ----------------
      | 
       
       
      
                                             |--3--|              
      
         Q.        S   S  Q     Q       Q    E  E  E  Q    Q      
      
      ----------------
      ---------------|
      ----------------
      ----------| 
      --10b~------10S-12-10~---------|--8----7--8--7-------8----| 
      
      ----------------
      ---------------|
      ----------------
      9---------| 
      
      ----------------
      ---------------|
      ----------------
      ----------| 
      
      ----------------
      ---------------|
      ----------------
      ----------| 
      
      ----------------
      ---------------|
      ----------------
      ----------| 
       
       
      
         Q      Q     Q     Q        E   E   E   E   E   E   E   E
      --------------10----14----|--15--14--12----------------
      ------| 
      --7S----10
      ----------------
      |--------------15--14--12----------| 
      
      ----------------
      ----------|
      ----------------
      ----------14--12--| 
      
      ----------------
      ----------|
      ----------------
      
      ----------------
      --| 
      
      ----------------
      ----------|
      ----------------
      
      ----------------
      --| 
      
      ----------------
      ----------|
      ----------------
      
      ----------------
      --| 
       
       
         E   E   E   E   E   E   Q      
      
      ----------------
      
      ----------------
      | 
      
      ----------------
      
      ----------------
      | 
      --18--16--14
      ----------------
      ----| 
      --------------17--16--14S--7----| 
      
      ----------------
      
      ----------------
      | 
      
      ----------------
      
      ----------------
      | 
       
       
      
                        |----3---|                     
      
      
         S  S  S S  S S  E    E   E   S  S  S  S   E
      ---------------9-12S--17--12----------------
      ---| 
      ------------10
      ----------------
      14---------------| 
      ----------9
      ----------------
      ------14------------| 
      -------11
      ----------------
      -----------14---------| 
      --7-12
      ----------------
      
      ----------------
      -12S-16--| 
      
      ----------------
      
      ----------------
      ---------------| 
       
       
      
                     |-----5-----|                                                
      
      
          S  S  S  S  S  S  S  S  S  Q     Q        Q      E   E   Q      E   E
      --21-17-------17-12----------------
      ------|--17~----14--15--17~----14--15--| 
      --------17----------14
      ----------------
      ---|
      ----------------
      
      ----------------
      | 
      -----------18----------14
      ----------------
      |
      ----------------
      
      ----------------
      | 
      
      ----------------
      ----------14-------------|
      ----------------
      
      ----------------
      | 
      
      ----------------
      -------------12~---------|
      ----------------
      
      ----------------
      | 
      
      ----------------
      
      ----------------
      ---------|
      ----------------
      
      ----------------
      | 
       
       
      
          E   E   E   E   E   E   E   E      Q      E   E   Q      E   E
      --17----------------
      ------14--15--|--14~------------14~------------| 
      --------------14--15--17----------|---------15--17
      ----------------
      -| 
      ------14--16
      ----------------
      ------|
      ----------------
      
      ----------------
      | 
      
      ----------------
      
      ----------------
      --|
      ----------------
      --------16--17--| 
      
      ----------------
      
      ----------------
      --|
      ----------------
      
      ----------------
      | 
      
      ----------------
      
      ----------------
      --|
      ----------------
      
      ----------------
      | 
       
       
      
          E   E   E   E   E   E   E   E      Q      E   E   Q      E   E
      ----------------
      
      ----------------
      --|
      ----------------
      
      ----------------
      | 
      
      ----------------
      ------15--14--15--|
      ----------------
      
      ----------------
      | 
      --14--16--14------14--------------|---------16--14
      ----------------
      -| 
      --------------17
      ----------------
      --|--17~------------17~----16--14--| 
      
      ----------------
      
      ----------------
      --|
      ----------------
      
      ----------------
      | 
      
      ----------------
      
      ----------------
      --|
      ----------------
      
      ----------------
      | 
       
       
      
          E   E   E   E   E   E   E   E      Q      E   E   Q      E   E
      ----------------
      
      ----------------
      --|
      ----------------
      
      ----------------
      | 
      
      ----------------
      
      ----------------
      --|
      ----------------
      --------14--15--| 
      
      ----------------
      ----------14--16--|---------16--14--16~------------| 
      --16--14------14--16--17----------|--17~
      ----------------
      -----------| 
      ----------17
      ----------------
      ------|
      ----------------
      
      ----------------
      | 
      
      ----------------
      
      ----------------
      --|
      ----------------
      
      ----------------
      | 
       
       
      
          E   E   E   E   E   E   E   E      Q      E   E   Q      E   E
      ----------------
      ------14--15--17--|--14~------------14~------------| 
      ----------14--15--17--------------|---------15--17---------17--15--| 
      --14--16
      ----------------
      ----------|
      ----------------
      
      ----------------
      | 
      
      ----------------
      
      ----------------
      --|
      ----------------
      
      ----------------
      | 
      
      ----------------
      
      ----------------
      --|
      ----------------
      
      ----------------
      | 
      
      ----------------
      
      ----------------
      --|
      ----------------
      
      ----------------
      | 
       
       
      
          E   E   E   E   Q      E   E      Q      E   E   Q      E   E
      ----------------
      
      ----------------
      -|
      ----------------
      
      ----------------
      | 
      --17--14--15--17--17b----15--14--|--15~--------14--15~------------| 
      
      ----------------
      
      ----------------
      -|---------16
      ----------------
      -----| 
      
      ----------------
      
      ----------------
      -|
      ----------------
      --------16--17--| 
      
      ----------------
      
      ----------------
      -|
      ----------------
      
      ----------------
      | 
      
      ----------------
      
      ----------------
      -|
      ----------------
      
      ----------------
      | 
       
       
      
          E   E   E   E   E   E   E   E      Q      E   E   Q      E   E
      ----------------
      
      ----------------
      --|
      ----------------
      
      ----------------
      | 
      
      ----------------
      ------15--14--15--|---------15--14
      ----------------
      -| 
      --14--16--14------14--------------|--16~------------16~----14------| 
      --------------17
      ----------------
      --|
      ----------------
      ------------17--| 
      
      ----------------
      
      ----------------
      --|
      ----------------
      
      ----------------
      | 
      
      ----------------
      
      ----------------
      --|
      ----------------
      
      ----------------
      | 
       
       
      
          E   E   E   E   E   E   E   E      Q      E   E   Q      E   E
      ----------------
      
      ----------------
      --|
      ----------------
      
      ----------------
      | 
      
      ----------------
      ----------14--15--|---------15--14--15~----14------| 
      --14--------------14--16----------|--16~
      ----------------
      -------16--| 
      ------17--16--17
      ----------------
      --|
      ----------------
      
      ----------------
      | 
      
      ----------------
      
      ----------------
      --|
      ----------------
      
      ----------------
      | 
      
      ----------------
      
      ----------------
      --|
      ----------------
      
      ----------------
      | 
       
       
                                                            PM PM   
      
          E   E   E   E   E   E   E   E      H         E  E  E  E
      ----------------
      
      ----------------
      --|
      ----------------
      ---------| 
      --14--15--17--15--14--15------14--|--15~--------8--7--------| 
      
      ----------------
      ----------16------|
      ----------------
      ---------| 
      
      ----------------
      
      ----------------
      --|
      ----------------
      ---------| 
      
      ----------------
      
      ----------------
      --|
      ----------------
      ---5--5--| 
      
      ----------------
      
      ----------------
      --|
      ----------------
      ---------| 
       
       
             PM PM       PM PM         PM PM    PM    PM         PM PM    PM    PM   
      
         Q    E  E  E  E  E  E     Q    E  E  E  E  E  E     Q    E  E  E  E  E  E
      ----------------
      ---------|
      ----------------
      ---------|
      ----------------
      ---------| 
      -------------5--7--------|-------------2-----3-----|
      ----------------
      ---------| 
      
      ----------------
      ---------|--4
      ----------------
      ------|
      ----------------
      ---------| 
      --7
      ----------------
      ------|--4
      ----------------
      ------|--4----------2-----4-----| 
      --7
      ----------------
      0--0--|--2----2--2-----2-----2--|--4----------2-----4-----| 
      --5----5--5--------------|
      ----------------
      ---------|--2----2--2--0--0--2--2--| 
       
       
             PM PM PM                  PM PM                     PM PM                 
      
         Q    E  E  E  Q     E     Q    E  E  E  E  E  E     Q    E  E  E   E   E  E
      ----------------
      ---------|
      ----------------
      ---------|
      ----------------
      -----------| 
      
      ----------------
      ---------|-------------8--7--5-----|
      ----------------
      -----------| 
      
      ----------------
      4S----6--|--7
      ----------------
      ---7--|-------------4S--6h--7--6--| 
      --5-------------5S----7--|--7
      ----------------
      ------|--5
      ----------------
      --------| 
      --5
      ----------------
      ------|--5----5--5--------------|--5
      ----------------
      --------| 
      --3----3--3--3-----------|
      ----------------
      ---------|--3----3--3
      ----------------
      | 
       
       
      
         |---3---|   |---3---|   |---3---|   |---3---|                           
      
         E   E   E   E   E   E   E   E   E   E   E   E      W                    
      
      ----------------
      
      ----------------
      
      ----------------
      --|
      ----------------
      ------| 
      
      ----------------
      
      ----------------
      ------14--15--17--|--17b~
      ----------------
      | 
      --------------14--16--18--14--16--18--------------|
      ----------------
      ------| 
      --14--16--17
      ----------------
      
      ----------------
      ------|
      ----------------
      ------| 
      
      ----------------
      
      ----------------
      
      ----------------
      --|
      ----------------
      ------| 
      
      ----------------
      
      ----------------
      
      ----------------
      --|
      ----------------
      ------| 
       
       
           H.            Q        H         E     Q.          
      
      ----------------
      --------|
      ----------------
      -------------| 
      --17b
      ----------------
      -|--15~-----------15brb------| 
      
      ----------------
      --------|
      ----------------
      -------------| 
      
      ----------------
      --------|
      ----------------
      -------------| 
      
      ----------------
      --------|
      ----------------
      -------------| 
      
      ----------------
      --------|
      ----------------
      -------------| 
       
       
                          PM  PM                                
      
          H          Q     E   E        H         E   Q     E
      ----------------
      -----------|
      ----------------
      ------------| 
      --14~
      ----------------
      ------|
      ----------------
      ------------| 
      -------------14------------|--16~--------L--14----12--| 
      
      ----------------
      ---12--12--|
      ----------------
      ------------| 
      
      ----------------
      -----------|
      ----------------
      ------------| 
      
      ----------------
      -----------|
      ----------------
      ------------| 
       
       
         Q     Q     H             S  S  S  S  S  S  S  S  S  S  S  S  S  S  S  S   
      
      ----------------
      ---------|
      ----------------
      
      ----------------
      
      ----------------
      --| 
      --------15---------------|--------------12-12-12-12-14-14-14-14-15-15-15-15-| 
      --14----------11~--------|--12-12-12-12
      ----------------
      
      ----------------
      -----| 
      
      ----------------
      ---------|
      ----------------
      
      ----------------
      
      ----------------
      --| 
      
      ----------------
      ---------|
      ----------------
      
      ----------------
      
      ----------------
      --| 
      
      ----------------
      ---------|
      ----------------
      
      ----------------
      
      ----------------
      --| 
       
       
      
                                             |-----5-----|                            
      
         S  S  S  S  S  S  S  S  S  S  S  S  S  S  S  S  S     H.              Q      
      
      -----------14-15-17-15-14----------------
      ------------|
      ----------------
      --------| 
      --14-15-17
      ----------------
      17-15-14----------14-15-17-|--17b~------------22----| 
      
      ----------------
      
      ----------------
      ---16-14-16----------|
      ----------------
      --------| 
      
      ----------------
      
      ----------------
      
      ----------------
      -----|
      ----------------
      --------| 
      
      ----------------
      
      ----------------
      
      ----------------
      -----|
      ----------------
      --------| 
      
      ----------------
      
      ----------------
      
      ----------------
      -----|
      ----------------
      --------| 
       
       
         H            Q     Q        H         E   Q.          
      
      ----------------
      -----------|
      ----------------
      -----------| 
      --17pbr--------15----14----|--15~-----------15pbr------| 
      
      ----------------
      -----------|
      ----------------
      -----------| 
      
      ----------------
      -----------|
      ----------------
      -----------| 
      
      ----------------
      -----------|
      ----------------
      -----------| 
      
      ----------------
      -----------|
      ----------------
      -----------| 
       
       
         Q     Q     Q     Q        Q      Q     Q     Q      
      
      --------14----17~---------|--19~----17----15----19----| 
      --14----------------
      ------|
      ----------------
      -----------| 
      
      ----------------
      ----------|
      ----------------
      -----------| 
      
      ----------------
      ----------|
      ----------------
      -----------| 
      
      ----------------
      ----------|
      ----------------
      -----------| 
      
      ----------------
      ----------|
      ----------------
      -----------| 
       
       
         Q      Q     H              S  S  S  S  S  S  S  S  S  S  S  S  S  S  S  S   
      
      --17~----21----21b~--------|--19-15----------15-19-15-19-15----------15-19-15-| 
      ----------------
      -----------|--------15----15
      ----------------
      15----15----------| 
      
      ----------------
      -----------|-----------16
      ----------------
      ------16-------------| 
      
      ----------------
      -----------|
      ----------------
      
      ----------------
      
      ----------------
      --| 
      
      ----------------
      -----------|
      ----------------
      
      ----------------
      
      ----------------
      --| 
      
      ----------------
      -----------|
      ----------------
      
      ----------------
      
      ----------------
      --| 
       
       
                                                 PM    PM    PM          
      
          S  S  S  S  S  S  S  S  H            E  E  E  E  E  E  E   E
      --21-17-------21-17----------------
      --|
      ----------------
      -----------| 
      --------17----------17---------------|
      ----------------
      -----------| 
      -----------18----------18S-9~--------|--7-----6-----7------------| 
      
      ----------------
      
      ----------------
      -----|-----0-----0-----0--4h--5--| 
      
      ----------------
      
      ----------------
      -----|
      ----------------
      -----------| 
      
      ----------------
      
      ----------------
      -----|
      ----------------
      -----------| 
       
       
                                           PM    PM    PM    PM   
      
         E   E  E   E   E   E  E   E     E  E  E  E  E  E  E  E
      ----------------
      ---------------|
      ----------------
      ----------| 
      
      ----------------
      ---------------|--3--0--2--0--3--0--7--0--| 
      
      ----------------
      --------6S--2--|
      ----------------
      ----------| 
      --7S--9--7p--6h--7h--9---------|
      ----------------
      ----------| 
      
      ----------------
      ---------------|
      ----------------
      ----------| 
      
      ----------------
      ---------------|
      ----------------
      ----------| 
       
       
                  PM                                              
      
            Q.     E  E  E  E   E      E  E   E  E  E  E   E  E
      ----------------
      ------------|
      ----------------
      -------------| 
      --10---------------7--10--|--12--0--10--0--8--0--12--0--| 
      ------------6--7--9---------|
      ----------------
      -------------| 
      
      ----------------
      ------------|
      ----------------
      -------------| 
      
      ----------------
      ------------|
      ----------------
      -------------| 
      
      ----------------
      ------------|
      ----------------
      -------------| 
       
       
      
               |---3---|                
      
      
          Q     E   E   E   Q.      E
      ----------------
      
      ----------------
      | 
      --10------------10--15~---------| 
      ------------11
      ----------------
      --| 
      --------12
      ----------------
      ------| 
      
      ----------------
      
      ----------------
      | 
      
      ----------------
      
      ----------------
      | 
       
       
         S  S  S  S  S  S  S  S  S  S  S  S  S  S  S  S   
      
      ----------------
      
      ----------------
      
      ----------------
      --| 
      --15-12
      ----------------
      12-15-12
      ----------------
      12-| 
      --------12----------12----------12----------12----| 
      -----------12----12
      ----------------
      12----12-------| 
      --------------14
      ----------------
      ------14----------| 
      
      ----------------
      
      ----------------
      
      ----------------
      --| 
       
       
                                                PM    PM    PM          
      
          S  S  S  S  S  S  S  S H            E  E  E  E  E  E  E   E
      ----------------
      
      ----------------
      ----|
      ----------------
      -----------| 
      --17-14-------17-14
      ----------------
      -|
      ----------------
      -----------| 
      --------14----------14--------------|--7-----6-----7------------| 
      -----------14----------14-7~--------|-----0-----0-----0--4h--5--| 
      
      ----------------
      
      ----------------
      ----|
      ----------------
      -----------| 
      
      ----------------
      
      ----------------
      ----|
      ----------------
      -----------| 
       
       
                                           PM    PM    PM    PM   
      
         E   E  E   E   E   E  E   E     E  E  E  E  E  E  E  E
      ----------------
      ---------------|
      ----------------
      ----------| 
      
      ----------------
      ---------------|--3--0--2--0--3--0--7--0--| 
      
      ----------------
      --------6S--2--|
      ----------------
      ----------| 
      --7S--9--7p--6h--7h--9---------|
      ----------------
      ----------| 
      
      ----------------
      ---------------|
      ----------------
      ----------| 
      
      ----------------
      ---------------|
      ----------------
      ----------| 
       
       
      
            W                     E  E   E  E  E  E   E  E
      ----------------
      -------|
      ----------------
      -------------| 
      --10b
      ----------------
      |--12--0--10--0--8--0--12--0--| 
      
      ----------------
      -------|
      ----------------
      -------------| 
      
      ----------------
      -------|
      ----------------
      -------------| 
      
      ----------------
      -------|
      ----------------
      -------------| 
      
      ----------------
      -------|
      ----------------
      -------------| 
       
       
         Q      S  S  S  S  S  S  S  S  S  S  S  S   
      
      ----------------
      --10-14-17-14----------14-17-| 
      --10~----------10-------------15----15-------| 
      ------------11
      ----------------
      ---14----------| 
      ---------12
      ----------------
      
      ----------------
      --| 
      
      ----------------
      
      ----------------
      -------------| 
      
      ----------------
      
      ----------------
      -------------| 
       
       
         S  S  S  S  S  S  S  S  S  S  S  S  S  S  S  S     H.             Q      
      
      --19-15----------15-19-15-19-15----------15-19-15-|--19b~----------------
      -| 
      --------15----15
      ----------------
      15----15----------|
      ----------------
      -------| 
      -----------16
      ----------------
      ------16-------------|
      ----------------
      -------| 
      
      ----------------
      
      ----------------
      
      ----------------
      --|
      ----------------
      -------| 
      
      ----------------
      
      ----------------
      
      ----------------
      --|
      ----------------
      -------| 
      
      ----------------
      
      ----------------
      
      ----------------
      --|
      ----------------
      -------| 
       
       
      
          Q      E   E   Q      E   E      E   E   E   E   E   E   E   E
      --17~----14--15--17~----14--15--|--17----------------
      ------14--15--| 
      
      ----------------
      
      ----------------
      |--------------14--15--17----------| 
      
      ----------------
      
      ----------------
      |------14--16
      ----------------
      ------| 
      
      ----------------
      
      ----------------
      |
      ----------------
      
      ----------------
      --| 
      
      ----------------
      
      ----------------
      |
      ----------------
      
      ----------------
      --| 
      
      ----------------
      
      ----------------
      |
      ----------------
      
      ----------------
      --| 
       
       
      
          Q      E   E   Q      E   E      E   E   E   E   E   E   E   E
      --14~------------14~------------|----------------
      
      ----------------
      --| 
      ---------15--17
      ----------------
      -|
      ----------------
      ------15--14--15--| 
      
      ----------------
      
      ----------------
      |--14--16--14------14--------------| 
      
      ----------------
      --------16--17--|--------------17
      ----------------
      --| 
      
      ----------------
      
      ----------------
      |
      ----------------
      
      ----------------
      --| 
      
      ----------------
      
      ----------------
      |
      ----------------
      
      ----------------
      --| 
       
       
      
          Q      E   E   Q      E   E      E   E   E   E   E   E   E   E
      ----------------
      
      ----------------
      |
      ----------------
      
      ----------------
      --| 
      
      ----------------
      
      ----------------
      |
      ----------------
      
      ----------------
      --| 
      ---------16--14
      ----------------
      -|
      ----------------
      ----------14--16--| 
      --17~------------17~----16--14--|--16--14------14--16--17----------| 
      
      ----------------
      
      ----------------
      |----------17
      ----------------
      ------| 
      
      ----------------
      
      ----------------
      |
      ----------------
      
      ----------------
      --| 
       
       
      
          Q      E   E   Q      E   E      E   E   E   E   E   E   E   E
      ----------------
      
      ----------------
      |
      ----------------
      ------14--15--17--| 
      
      ----------------
      --------14--15--|----------14--15--17--------------| 
      ---------16--14--16~------------|--14--16
      ----------------
      ----------| 
      --17~
      ----------------
      -----------|
      ----------------
      
      ----------------
      --| 
      
      ----------------
      
      ----------------
      |
      ----------------
      
      ----------------
      --| 
      
      ----------------
      
      ----------------
      |
      ----------------
      
      ----------------
      --| 
       
       
      
          Q      E   E   Q      E   E      E   E   E   E   Q      E   E
      --14~------------14~------------|----------------
      
      ----------------
      -| 
      ---------15--17---------17--15--|--17--14--15--17--17b----15--14--| 
      
      ----------------
      
      ----------------
      |
      ----------------
      
      ----------------
      -| 
      
      ----------------
      
      ----------------
      |
      ----------------
      
      ----------------
      -| 
      
      ----------------
      
      ----------------
      |
      ----------------
      
      ----------------
      -| 
      
      ----------------
      
      ----------------
      |
      ----------------
      
      ----------------
      -| 
       
       
      
          Q      E   E   Q      E   E      E   E   E   E   E   E   E   E
      ----------------
      
      ----------------
      |
      ----------------
      
      ----------------
      --| 
      --15~--------14--15~------------|
      ----------------
      ------15--14--15--| 
      ---------16
      ----------------
      -----|--14--16--14------14--------------| 
      
      ----------------
      --------16--17--|--------------17
      ----------------
      --| 
      
      ----------------
      
      ----------------
      |
      ----------------
      
      ----------------
      --| 
      
      ----------------
      
      ----------------
      |
      ----------------
      
      ----------------
      --| 
       
       
      
          Q      E   E   Q      E   E      E   E   E   E   E   E   E   E
      ----------------
      
      ----------------
      |
      ----------------
      
      ----------------
      --| 
      ---------15--14
      ----------------
      -|
      ----------------
      ----------14--15--| 
      --16~------------16~----14------|--14--------------14--16----------| 
      
      ----------------
      ------------17--|------17--16--17
      ----------------
      --| 
      
      ----------------
      
      ----------------
      |
      ----------------
      
      ----------------
      --| 
      
      ----------------
      
      ----------------
      |
      ----------------
      
      ----------------
      --| 
       
       
      
          Q      E   E   Q      E   E      E   E   E   E   E   E   E   E
      ----------------
      
      ----------------
      |
      ----------------
      
      ----------------
      --| 
      ---------15--14--15~----14------|--14--15--17--15--14--15------14--| 
      --16~
      ----------------
      -------16--|
      ----------------
      ----------16------| 
      
      ----------------
      
      ----------------
      |
      ----------------
      
      ----------------
      --| 
      
      ----------------
      
      ----------------
      |
      ----------------
      
      ----------------
      --| 
      
      ----------------
      
      ----------------
      |
      ----------------
      
      ----------------
      --| 
       
       
         W                 H           H.            Q       Q    Q    E   S  S Q      
      
      ----------------
      --------------|
      ----------------
      -----|
      ----------------
      ----------| 
      --15~
      ----------------
      ---------|
      ----------------
      -----|
      ----------------
      ----------| 
      
      ----------------
      --------------|
      ----------------
      -----|
      ----------------
      ----------| 
      
      ----------------
      --------------|--7~
      ----------------
      -|--7----9----7h--9p-7-5----| 
      
      ----------------
      --------------|
      ----------------
      -----|
      ----------------
      ----------| 
      
      ----------------
      --------------|
      ----------------
      -----|
      ----------------
      ----------| 
       
       
        H.            Q       Q    Q    E   S  S Q       Q    Q    Q    Q      
      
      ----------------
      -----|
      ----------------
      ----------|
      ----------------
      ------| 
      
      ----------------
      -----|--7----8----7h--8p-7------|
      ----------------
      ------| 
      
      ----------------
      -----|
      ----------------
      -----9----|--7----6----4----6----| 
      --4~
      ----------------
      -|
      ----------------
      ----------|
      ----------------
      ------| 
      
      ----------------
      -----|
      ----------------
      ----------|
      ----------------
      ------| 
      
      ----------------
      -----|
      ----------------
      ----------|
      ----------------
      ------| 
       
       
        H.            Q       Q    Q    Q    Q       W                   
      
      ----------------
      -----|
      ----------------
      ------|
      ----------------
      ----| 
      
      ----------------
      -----|
      ----------------
      ------|
      ----------------
      ----| 
      --7~
      ----------------
      -|--7----6----4----5----|--6~
      ----------------
      | 
      
      ----------------
      -----|
      ----------------
      ------|
      ----------------
      ----| 
      
      ----------------
      -----|
      ----------------
      ------|
      ----------------
      ----| 
      
      ----------------
      -----|
      ----------------
      ------|
      ----------------
      ----| 
       
       
           PM    PM    PM     PM             PM          PM          
      
         E  E  E  E  E  E   E  E      E    E  E   E    E  E  E   E
      ----------------
      -----------|
      ----------------
      
      ----------------
      -| 
      
      ----------------
      -----------|
      ----------------
      
      ----------------
      -| 
      --7-----6-----7-----11-----|--11S--14-----12S--11-----9S--6--| 
      -----0-----0-----0------0--|-----------0-----------0---------| 
      
      ----------------
      -----------|
      ----------------
      
      ----------------
      -| 
      
      ----------------
      -----------|
      ----------------
      
      ----------------
      -| 
       
       
           PM    PM    PM     PM             PM          PM            
      
         E  E  E  E  E  E   E  E      E    E  E   E    E  E   E    E
      ----------------
      -----------|
      ----------------
      
      ----------------
      ---| 
      
      ----------------
      -----------|
      ----------------
      ----------14S--10--| 
      --7-----6-----7-----11-----|--11S--14-----16S--14--------------| 
      -----0-----0-----0------0--|-----------0-----------0-----------| 
      
      ----------------
      -----------|
      ----------------
      
      ----------------
      ---| 
      
      ----------------
      -----------|
      ----------------
      
      ----------------
      ---| 
       
       
      
         |---3---|   |---3--|  |---3--|  |--3--|    
      
      
          E   E   E   E  E   E  E   E  E  E  E  E
      ----------------
      
      ----------------
      ------------| 
      --12--12--10--12--8--12--7--10--8--7--------| 
      
      ----------------
      
      ----------------
      ------9--7--| 
      
      ----------------
      
      ----------------
      ------------| 
      
      ----------------
      
      ----------------
      ------------| 
      
      ----------------
      
      ----------------
      ------------| 
       
       
      
         |---3--|   |---3--|  |---3--|  |--3--|    
      
      
          E   E  E   E  E   E  E  E   E  E  E  E
      ----------------
      
      ----------------
      -----------| 
      --10--10--8--10--7--10
      ----------------
      -----| 
      
      ----------------
      --------9--7S--6-----------| 
      
      ----------------
      
      ----------------
      --9--7--5--| 
      
      ----------------
      
      ----------------
      -----------| 
      
      ----------------
      
      ----------------
      -----------| 
       
       
        |--3--|  |--3--|  |--3--|  |--3--|    
      
         E  E  E  E  E  E  E  E  E  E  E  E
      ----------------
      
      ----------------
      ------| 
      
      ----------------
      -------------5--7--8--| 
      -----------4--6--7--4--6--7-----------| 
      --4--5--7
      ----------------
      -------------| 
      
      ----------------
      
      ----------------
      ------| 
      
      ----------------
      
      ----------------
      ------| 
       
       
        |--3--|  |--3--|                         
        E  E  E  E  E  E   S S S  S  S S  S  S   
      
      -----------5--7--9--10-7-9-10-12-9-10-12-| 
      --5--7--8----------------
      
      ----------------
      | 
      
      ----------------
      
      ----------------
      ---------| 
      
      ----------------
      
      ----------------
      ---------| 
      
      ----------------
      
      ----------------
      ---------| 
      
      ----------------
      
      ----------------
      ---------| 
       
       
         S  S  S  S  S  S  S  S  S  S  S  S  S  S  S  S   
      
      --14-10----------10-14-10-14-10----------10-14-10-| 
      --------10----10----------------
      10----10----------| 
      -----------11
      ----------------
      ------11-------------| 
      
      ----------------
      
      ----------------
      
      ----------------
      --| 
      
      ----------------
      
      ----------------
      
      ----------------
      --| 
      
      ----------------
      
      ----------------
      
      ----------------
      --| 
       
       
         S S  S S  S S  S S  S S  S S  S S  S S   
      
      --12-9---------9-12-9-14-9------12-9------| 
      -------10---10-------------10--------10---| 
      ----------9----------------
      ---9---------9-| 
      
      ----------------
      
      ----------------
      ----------| 
      
      ----------------
      
      ----------------
      ----------| 
      
      ----------------
      
      ----------------
      ----------| 
       
       
         S S S S S S  S S  S S S S S S  S S    S S S S S S S S S S S S S S S S   
      
      --10-7-------7-10-7-10-7-------7-10-7-|--9-5-------5-9-5-5-2-----5-2-----| 
      -------7---7-------------7---7--------|------7---7-----------2-------2---| 
      ---------7----------------
      -7----------|--------6---------------2-------2-| 
      
      ----------------
      
      ----------------
      ------|
      ----------------
      
      ----------------
      --| 
      
      ----------------
      
      ----------------
      ------|
      ----------------
      
      ----------------
      --| 
      
      ----------------
      
      ----------------
      ------|
      ----------------
      
      ----------------
      --| 
       
       
        S S S S S S S S  S S S S S S  S S   
      
      --7-3-------3-7-3-10-7-------7-10-7-| 
      ------3---3------------8---8--------| 
      --------4----------------
      7----------| 
      
      ----------------
      
      ----------------
      ----| 
      
      ----------------
      
      ----------------
      ----| 
      
      ----------------
      
      ----------------
      ----| 
       
       
         S  S  S  S  S  S  S  S  S  S  S  S  S  S  S  S   
      
      --14-10-------14-10-------15-10-------17-14-------| 
      --------10----------10----------10----------15----| 
      -----------11----------11----------11----------14-| 
      ----------------
      
      ----------------
      
      ----------------
      --| 
      
      ----------------
      
      ----------------
      
      ----------------
      --| 
      
      ----------------
      
      ----------------
      
      ----------------
      --| 
       
       
         S  S  S  S  S  S  S  S  S  S  S  S  S  S  S  S   
      
      --19-15----------15-19-15-19-15----------15-19-15-| 
      --------15----15----------------
      15----15----------| 
      -----------16
      ----------------
      ------16-------------| 
      
      ----------------
      
      ----------------
      
      ----------------
      --| 
      
      ----------------
      
      ----------------
      
      ----------------
      --| 
      
      ----------------
      
      ----------------
      
      ----------------
      --| 
       
       
      
          S  S  S  S  S  S  S  S  S  S  S  S  Q         Q      E   E   Q      E   E
      --17-12----------------
      
      ----------------
      ------|--17~----13--15--17~----13--15--| 
      --------14----17-14
      ----------------
      ----------|
      ----------------
      
      ----------------
      | 
      -----------14-------14----18-14--------------|
      ----------------
      
      ----------------
      | 
      
      ----------------
      -------14-------14-----------|
      ----------------
      
      ----------------
      | 
      
      ----------------
      
      ----------------
      ---16-12~----|
      ----------------
      
      ----------------
      | 
      
      ----------------
      
      ----------------
      -------------|
      ----------------
      
      ----------------
      | 
       
       
      
          E   E   E   E   E   E   E   E      Q      E   E   Q      E   E
      --17----------------
      ------13--15--|--13~------------13~------------| 
      --------------14--15--17----------|---------15--17
      ----------------
      -| 
      ------14--15
      ----------------
      ------|
      ----------------
      
      ----------------
      | 
      
      ----------------
      
      ----------------
      --|
      ----------------
      --------15--17--| 
      
      ----------------
      
      ----------------
      --|
      ----------------
      
      ----------------
      | 
      
      ----------------
      
      ----------------
      --|
      ----------------
      
      ----------------
      | 
       
       
      
          E   E   E   E   E   E   E   E      Q      E   E   Q      E   E
      ----------------
      
      ----------------
      --|
      ----------------
      
      ----------------
      | 
      
      ----------------
      ------15--14--15--|--11~----15--13--11~------------| 
      --14--15--14------14--------------|
      ----------------
      --------14--12--| 
      --------------17
      ----------------
      --|
      ----------------
      
      ----------------
      | 
      
      ----------------
      
      ----------------
      --|
      ----------------
      
      ----------------
      | 
      
      ----------------
      
      ----------------
      --|
      ----------------
      
      ----------------
      | 
       
       
      
          E   E   E   E   E   E   E   E      Q      E   E   Q      E   E
      ----------------
      
      ----------------
      --|
      ----------------
      --------12--13--| 
      
      ----------------
      ------11--14--15--|--11~----15--14--15~------------| 
      --14--12--10--12--14--------------|
      ----------------
      
      ----------------
      | 
      
      ----------------
      
      ----------------
      --|
      ----------------
      
      ----------------
      | 
      
      ----------------
      
      ----------------
      --|
      ----------------
      
      ----------------
      | 
      
      ----------------
      
      ----------------
      --|
      ----------------
      
      ----------------
      | 
       
       
      
          E   E   E   E   E   E   E   E      Q      E   E   Q      E   E
      ----------------
      ------13--15--17--|--13~------------13~------------| 
      ----------14--15--17--------------|---------15--17---------17--15--| 
      --14--15
      ----------------
      ----------|
      ----------------
      
      ----------------
      | 
      
      ----------------
      
      ----------------
      --|
      ----------------
      
      ----------------
      | 
      
      ----------------
      
      ----------------
      --|
      ----------------
      
      ----------------
      | 
      
      ----------------
      
      ----------------
      --|
      ----------------
      
      ----------------
      | 
       
       
      
          E   E   E   E   Q      E   E      Q      E   E   Q      E   E
      ----------------
      
      ----------------
      -|
      ----------------
      
      ----------------
      | 
      --17--14--15--17--17b----15--14--|--15~--------14--15~------------| 
      
      ----------------
      
      ----------------
      -|---------15
      ----------------
      -----| 
      
      ----------------
      
      ----------------
      -|
      ----------------
      --------15--17--| 
      
      ----------------
      
      ----------------
      -|
      ----------------
      
      ----------------
      | 
      
      ----------------
      
      ----------------
      -|
      ----------------
      
      ----------------
      | 
       
       
      
          E   E   E   E   E   E   E   E      Q      E   E   Q      E   E
      ----------------
      
      ----------------
      --|
      ----------------
      
      ----------------
      | 
      
      ----------------
      ------15--14--15--|--11~----15--13--11~------------| 
      --14--15--14------14--------------|
      ----------------
      --------14--12--| 
      --------------17
      ----------------
      --|
      ----------------
      
      ----------------
      | 
      
      ----------------
      
      ----------------
      --|
      ----------------
      
      ----------------
      | 
      
      ----------------
      
      ----------------
      --|
      ----------------
      
      ----------------
      | 
       
       
      
                                                                  |---3---|    
      
      
          E   E   E   E   E   E   E   E      Q      E   E   Q      E   E   E
      ----------------
      
      ----------------
      --|
      ----------------
      
      ----------------
      ----| 
      
      ----------------
      ------11--14--15--|--11~----15--14--15~
      ----------------
      | 
      --14--12--10--12--14--------------|
      ----------------
      
      ----------------
      ----| 
      
      ----------------
      
      ----------------
      --|
      ----------------
      
      ----------------
      ----| 
      
      ----------------
      
      ----------------
      --|
      ----------------
      --------12--14--16--| 
      
      ----------------
      
      ----------------
      --|
      ----------------
      
      ----------------
      ----| 
       
       
      
         |---3---|   |---3---|   |---3---|   |---3---|                        
      
         E   E   E   E   E   E   E   E   E   E   E   E     W                  
      
      ----------------
      
      ----------------
      ------14--15--17--|
      ----------------
      ---| 
      
      ----------------
      ----------14--15--17--------------|
      ----------------
      ---| 
      --------------12--14--16
      ----------------
      ----------|
      ----------------
      ---| 
      --12--14--16
      ----------------
      
      ----------------
      ------|
      ----------------
      ---| 
      
      ----------------
      
      ----------------
      
      ----------------
      --|
      ----------------
      ---| 
      
      ----------------
      
      ----------------
      
      ----------------
      --|
      ----------------
      ---| 
       
       
      
          E   E   E   E   E   E   E   E      Q      E   E   Q      E   E
      --17----------------
      ------14--15--|--14~------------14~----14--15--| 
      --------------14--15--17----------|---------15--17
      ----------------
      -| 
      ------14--16
      ----------------
      ------|
      ----------------
      
      ----------------
      | 
      
      ----------------
      
      ----------------
      --|
      ----------------
      
      ----------------
      | 
      
      ----------------
      
      ----------------
      --|
      ----------------
      
      ----------------
      | 
      
      ----------------
      
      ----------------
      --|
      ----------------
      
      ----------------
      | 
       
       
      
                         |-----3-----|                   |-----3-----|      
      
         E   E   E   E   Q     Q     Q        H          Q     Q     Q      
      
      --17--19--17--15--17----19----21----|--21b~--------L----21----19----| 
      ----------------
      
      ----------------
      ----|
      ----------------
      ---------------| 
      
      ----------------
      
      ----------------
      ----|
      ----------------
      ---------------| 
      
      ----------------
      
      ----------------
      ----|
      ----------------
      ---------------| 
      
      ----------------
      
      ----------------
      ----|
      ----------------
      ---------------| 
      
      ----------------
      
      ----------------
      ----|
      ----------------
      ---------------| 
       
       
         Q.       S   S   S   S   S   S   S  S   S   S   
      
      --17~------14h-17h-19p-17p-14h-17p-14------------| 
      ----------------
      
      ----------------
      ------17h-19p-17-| 
      
      ----------------
      
      ----------------
      
      ----------------
      -| 
      
      ----------------
      
      ----------------
      
      ----------------
      -| 
      
      ----------------
      
      ----------------
      
      ----------------
      -| 
      
      ----------------
      
      ----------------
      
      ----------------
      -| 
       
       
         S   S   S   S   S  S   S   S   S   S   S  S   S   S   S   S   
      
      ----------------
      
      ----------------
      
      ----------------
      ---------------| 
      --19p-17p-15h-17p-15
      ----------------
      
      ----------------
      -----------| 
      
      ----------------
      -----16h-19p-16p-14h-16p-14
      ----------------
      ----| 
      
      ----------------
      
      ----------------
      ------------16h-19p-16p-14h-16-| 
      
      ----------------
      
      ----------------
      
      ----------------
      ---------------| 
      
      ----------------
      
      ----------------
      
      ----------------
      ---------------| 
       
       
      
         |-------5-------|  |-------5-------|               
      
         S   S   S   S   S  S   S   S   S   S   H           
      
      ----------------
      
      ----------------
      
      ----------------
      ----| 
      
      ----------------
      
      ----------------
      
      ----------------
      ----| 
      
      ----------------
      
      ----------------
      
      ----------------
      ----| 
      --19p-16p-14h-16p-14
      ----------------
      
      ----------------
      | 
      
      ----------------
      -----19p-16p-14h-16p-14p-12~--------| 
      
      ----------------
      
      ----------------
      
      ----------------
      ----| 
       
       
      
          Q      E   E   Q      E   E
      --17~----14--15--17~----14--15--| 
      ----------------
      
      ----------------
      | 
      
      ----------------
      
      ----------------
      | 
      
      ----------------
      
      ----------------
      | 
      
      ----------------
      
      ----------------
      | 
      
      ----------------
      
      ----------------
      | 
       
       
      
         |---3---|   |---3---|   |---3---|   |---3---|                           
      
         E   E   E   E   E   E   E   E   E   E   E   E      W                    
      
      --18--18--15--18--14--18------18------18------18--|--19b~----------------
      | 
      
      ----------------
      ----------17------15------14------|
      ----------------
      ------| 
      
      ----------------
      
      ----------------
      
      ----------------
      --|
      ----------------
      ------| 
      
      ----------------
      
      ----------------
      
      ----------------
      --|
      ----------------
      ------| 
      
      ----------------
      
      ----------------
      
      ----------------
      --|
      ----------------
      ------| 
      
      ----------------
      
      ----------------
      
      ----------------
      --|
      ----------------
      ------| 
       
       
      
         Q     E    E   E   E   E   E      H.              E   E
      --L----19p--17----------------
      --|--17b~------------17--15--| 
      
      ----------------
      19--18--17--15--|
      ----------------
      ----------| 
      
      ----------------
      
      ----------------
      |
      ----------------
      ----------| 
      
      ----------------
      
      ----------------
      |
      ----------------
      ----------| 
      
      ----------------
      
      ----------------
      |
      ----------------
      ----------| 
      
      ----------------
      
      ----------------
      |
      ----------------
      ----------| 
       
       
         Q     S   S   S   S  S   S   S   S   S   S   S   S   
      
      --14----15h-17p-15p-14----------------
      
      ----------------
      | 
      
      ----------------
      -------17p-15p-14S-12h-14h-15p-14p-12-| 
      
      ----------------
      
      ----------------
      
      ----------------
      ------| 
      
      ----------------
      
      ----------------
      
      ----------------
      ------| 
      
      ----------------
      
      ----------------
      
      ----------------
      ------| 
      
      ----------------
      
      ----------------
      
      ----------------
      ------| 
       
       
         S   S   S   S   S   S   S  S   S   S   S  S  S   S  S   S    
      
      ----------------
      
      ----------------
      
      ----------------
      --------------| 
      
      ----------------
      
      ----------------
      
      ----------------
      --------------| 
      --14p-12p-11h-12h-14p-12p-11S-9h-11h-12p-11p-9
      ----------------
      | 
      
      ----------------
      
      ----------------
      ---------------12p-11p-9h-11h-| 
      
      ----------------
      
      ----------------
      
      ----------------
      --------------| 
      
      ----------------
      
      ----------------
      
      ----------------
      --------------| 
       
       
         S   S  S   S   S   S  S   S  Q     Q        H         Q     Q      
      
      ----------------
      
      ----------------
      -----------|
      ----------------
      --17----| 
      
      ----------------
      
      ----------------
      -----------|--15~
      ----------------
      ---| 
      
      ----------------
      
      ----------------
      -----------|
      ----------------
      --------| 
      --12p-11p-9h-11h-12p-11p-9h-11p-7~---------|
      ----------------
      --------| 
      
      ----------------
      
      ----------------
      -----------|
      ----------------
      --------| 
      
      ----------------
      
      ----------------
      -----------|
      ----------------
      --------| 
       
       
         H          Q     Q        H        Q     Q        Q     Q     Q     Q      
      
      --17b--------17----15----|--14-------------14----|--14----15----14----------| 
      ----------------
      ---------|
      ----------------
      -------|
      ----------------
      ----17----| 
      
      ----------------
      ---------|
      ----------------
      -------|
      ----------------
      ----------| 
      
      ----------------
      ---------|
      ----------------
      -------|
      ----------------
      ----------| 
      
      ----------------
      ---------|
      ----------------
      -------|
      ----------------
      ----------| 
      
      ----------------
      ---------|
      ----------------
      -------|
      ----------------
      ----------| 
       
       
                     PM PM  PM PM                                                
         Q     Q     E  E   E  E      H          S   S   S   S   S   S   S   S   
      
      ----------------
      ------------|
      ----------------
      
      ----------------
      ------------| 
      --15----14----12--0--14--0--|--15~--------14h-15p-14h-15p-14h-15p-14h-15-| 
      
      ----------------
      ------------|
      ----------------
      
      ----------------
      ------------| 
      
      ----------------
      ------------|
      ----------------
      
      ----------------
      ------------| 
      
      ----------------
      ------------|
      ----------------
      
      ----------------
      ------------| 
      
      ----------------
      ------------|
      ----------------
      
      ----------------
      ------------| 
       
       
                  PM PM  PM PM  PM PM                                       
      
                                                |-----5-----|               
      
           Q      E  E   E  E   E  E      Q     S  S  S  S  S  Q     Q      
      
      ----------------
      
      ----------------
      |--------17-12
      ----------------
      ------| 
      --15~----14--0--12--0--13--0--|--14----------14
      ----------------
      ---| 
      
      ----------------
      
      ----------------
      |
      ----------------
      -14
      ----------------
      | 
      
      ----------------
      
      ----------------
      |
      ----------------
      ----14-------------| 
      
      ----------------
      
      ----------------
      |
      ----------------
      -------12~---------| 
      
      ----------------
      
      ----------------
      |
      ----------------
      
      ----------------
      ---| 
       
       
      
                                                   |----3----|    
      
      
          H         Q     Q        H          Q     E    E    E
      ----------------
      --17----|--17b--------17----15h--17p--15--| 
      --15~
      ----------------
      ---|
      ----------------
      
      ----------------
      -| 
      
      ----------------
      --------|
      ----------------
      
      ----------------
      -| 
      
      ----------------
      --------|
      ----------------
      
      ----------------
      -| 
      
      ----------------
      --------|
      ----------------
      
      ----------------
      -| 
      
      ----------------
      --------|
      ----------------
      
      ----------------
      -| 
       
       
         Q.      Q.      Q        W                     H          Q     Q      
      
      --14------17------17----|--20b----------------
      |--19~--------19----21----| 
      
      ----------------
      --------|
      ----------------
      -----|
      ----------------
      ---------| 
      
      ----------------
      --------|
      ----------------
      -----|
      ----------------
      ---------| 
      
      ----------------
      --------|
      ----------------
      -----|
      ----------------
      ---------| 
      
      ----------------
      --------|
      ----------------
      -----|
      ----------------
      ---------| 
      
      ----------------
      --------|
      ----------------
      -----|
      ----------------
      ---------| 
       
       
         Q.       E    H            Q      E   Q      E   Q       
      
      --21b------17~---L--------|--19S----17--17S----15--15S----| 
      ----------------
      ----------|
      ----------------
      ---------------| 
      
      ----------------
      ----------|
      ----------------
      ---------------| 
      
      ----------------
      ----------|
      ----------------
      ---------------| 
      
      ----------------
      ----------|
      ----------------
      ---------------| 
      
      ----------------
      ----------|
      ----------------
      ---------------| 
       
       
      
          E   Q      E   Q     Q        Q.      E   E    E    E   E
      --14--14S----12--12-----------|----------------
      
      ----------------
      | 
      
      ----------------
      --------------|---------10--10S--12p--10S--8S--| 
      
      ----------------
      -------14S----|--7
      ----------------
      -------------| 
      
      ----------------
      --------------|
      ----------------
      
      ----------------
      | 
      
      ----------------
      --------------|
      ----------------
      
      ----------------
      | 
      
      ----------------
      --------------|
      ----------------
      
      ----------------
      | 
       
       
      
                           |--3--|                                    
      
        Q    E  E  E   E   S  S  S E     E   E   E   E   Q     Q      
      
      ----------------
      
      ----------------
      |
      ----------------
      -------------| 
      --7-------7--7h--8p--7h-8p-7----|
      ----------------
      -------------| 
      
      ----------------
      -------------9--|--7p--6p--4h--6h--7~---------| 
      
      ----------------
      
      ----------------
      |
      ----------------
      -------------| 
      
      ----------------
      
      ----------------
      |
      ----------------
      -------------| 
      
      ----------------
      
      ----------------
      |
      ----------------
      -------------| 
       
       
      
         E   E   E   E   Q      Q        Q     E   E   Q      E    E
      ----------------
      --------------|------------17--17b----17p--15--| 
      
      ----------------
      --------------|--15~
      ----------------
      -----------| 
      --7p--6p--4h--5h--6S----14----|
      ----------------
      
      ----------------
      | 
      
      ----------------
      --------------|
      ----------------
      
      ----------------
      | 
      
      ----------------
      --------------|
      ----------------
      
      ----------------
      | 
      
      ----------------
      --------------|
      ----------------
      
      ----------------
      | 
       
       
      
          Q     E   E   E    E    E   E      E    E   E    E   Q.      E
      --14~-------14--14h--15p--14------|----------------
      
      ----------------
      | 
      
      ----------------
      --------------17--|--15p--14--12h--14--15~---------| 
      
      ----------------
      
      ----------------
      --|
      ----------------
      
      ----------------
      | 
      
      ----------------
      
      ----------------
      --|
      ----------------
      
      ----------------
      | 
      
      ----------------
      
      ----------------
      --|
      ----------------
      
      ----------------
      | 
      
      ----------------
      
      ----------------
      --|
      ----------------
      
      ----------------
      | 
       
       
         E    E   E    E   Q.       S   S     W                    
      
      ----------------
      
      ----------------
      ----|
      ----------------
      -----|| 
      --15p--14--12h--13--14~------15S-17-|--15~
      ----------------
      || 
      
      ----------------
      
      ----------------
      ----|
      ----------------
      -----|| 
      
      ----------------
      
      ----------------
      ----|
      ----------------
      -----|| 
      
      ----------------
      
      ----------------
      ----|
      ----------------
      -----|| 
      
      ----------------
      
      ----------------
      ----|
      ----------------
      -----||
      
      
      
      Duration Legend
      ---------------
      W - whole
      H - half
      Q - quarter
      E|- 8th
      S - 16th
      T - 32nd
      X - 64th
      . - note dotted
      |-n-|  - n-tuplets
      
      
      Tablature Legend
      
      ----------------
      
      L - tied note
      x - dead note
      G|- grace note
      (n) - ghost note
      > - accentuded note
      NH - natural harmonic
      AH - artificial harmonic
      TH - tapped harmonic
      SH - semi harmonic
      PH - pitch harmonic
      h - hammer on
      p - pull off
      B|- bend
      br - bendRelease
      pb - preBend
      pbr - preBendRelease
      brb - bendReleaseBend
      \n/ - tremolo bar dip
      \n - tremolo bar dive
      -/n - tremolo bar Release up
      /n\ - tremolo bar inverted dip
      /n - tremolo bar return
      -\n - tremolo bar Release down
      S - shift slide
      s - legato slide
      / -  slide into from below or out of upwards
      \ -  slide into from above or out of downwards
      ~ - vibrato
      W - wide vibrato
      tr - trill
      TP - tremolo picking
      T - tapping
      S - slap
      P - pop
      < - fade in
      ^ - brush up

      Comentários 25

      140 .
      • Daniel Daniel: Em 12/11/2015 15:18

        viddeeeeo aulaaaa por favor ,

      • Pablo Pablo: Em 23/03/2014 18:44

        Vídeo aula Por favor CifraClub

      • Theo Theo: Em 18/12/2013 21:18

        VIDEO AULA AI CIFRACLUB, UM CLASSICO DESSE SEM VIDEO AULA PQP HEIN

      • rikebraga rikebraga: Em 18/12/2013 17:40

        vamo CC video aula aee. PFF

      • guitarrista157 guitarrista157: Em 05/10/2013 20:54

        nao podia ser outro tinha que ser Asiatico tocano né!!

      • Phillipe Phillipe: Em 16/09/2013 20:26

        Video aula desta musica pff :PORTUGAL

      • Edio Edio: Em 11/09/2013 10:40

        Oo galera do cifra club, video aula ae pra gente pfv

      • Francyellen Francyellen: Em 24/08/2013 20:59

        CIFRA CLUB PELA MOR DE DEUS FAZ UMA VIDEO AULA DESSA MUSICA POR FAVOR KEBRA ESSA VAI

      • luid223 luid223: Em 04/03/2013 21:39

        Na minhaa opniao deveria tter uma nova video aula disso ,n de vitor e leo, cifraclub caindo no conceito de formação d musicos de vdd

      • baronlee baronlee: Em 02/10/2012 15:16

        POR FAVOR UNA VIDEO AULA!!!! ESTA CANCION ES BASTANTE DIFICIL

      140 cancelar

      conseguiu tocar?

      • •••

      covers

      Grave um vídeo tocando Canon Rock e mande pra gente!

      Ex.: http://www.youtube.com/watch?v=0IvSvIwGdwk
      ver covers de outras músicas »
      0:00 / 0:00

      Capítulos

        2 versões de violão dificuldade exibições contribuição e correção
        2 versões de guitarra dificuldade exibições contribuição e correção
        2 versões de cavaco dificuldade exibições contribuição e correção
        2 versões de teclado dificuldade exibições contribuição e correção
        1 versão de baixo exibições contribuição e correção
        play/pausefechar subir/descer velocidade
        6ª corda E5ª corda A4ª corda D3ª corda G2ª corda B1ª corda E
          acordes
          publicidade
          fechar
          ok