Cifra Club

Alívio

Jessé Aguiar

Cifra: Principal (violão e guitarra)
Selo Cifra Club: esta cifra foi revisada para atender aos critérios oficiais da nossa Equipe de Qualidade.
tom: G
[Intro] Am7  C  G  D2

[Tab - Dedilhado Intro] 

Parte 1 De 2
   Am7              C
E|------------------------------------------|
B|---------1----------------1---------------|
G|-----0-------0--------0-------0-----------|
D|---2---2---2---2----2---2---2---2---------|
A|-0----------------3-----------------------|
E|------------------------------------------|

Parte 2 De 2
   G                  D2
E|--------------------0---------------------|
B|---------3----------3---------------------|
G|-----0-------0------2---------------------|
D|---0---0---0---0----0---------------------|
A|------------------------------------------|
E|-3----------------------------------------|

[Tab - Solo Intro] 

E|------------------------------------10-------|
B|------------------8/10-8h10-10/12-------8/10-|
G|-4/5--4--------------------------------------|
D|--------7--5---------------------------------|
A|-------------6/7-----------------------------|
E|---------------------------------------------|

[Primeira Parte] 

[Tab - Dedilhado Primeira parte]

Parte 1 de 2
    G                   D    
E|-----------------------------0h2--------2-|
B|---------3---------3-----3----------3-----|
G|-----0---------0-------2---2------2---2---|
D|---0---0-----0---0---0----------0---------|
A|------------------------------------------|
E|-3---------3------------------------------|
  
Parte 2 de 2
   Em7                  C
E|------------------------------------------|
B|---------3---------3----------1---------1-|
G|-----0---------0----------0---------0-----|
D|---2---2-----2---2------2---2-----2---2---|
A|----------------------3---------3---------|
E|-0---------0------------------------------|

             G            D
O meu combustível pra continuar
           Em7
Jesus é a calmaria
             C
O aconchego dos meus dias
          G             D
O meu alicerce pra não desistir
              Em7
Não tá sendo fácil aqui
               C
Mas eu tenho que seguir

[Pré-Refrão] 

[Tab - Dedilhado Pré-Refrão]

Parte 1 de 2
   Am7        C        G         D
E|--------------------------------------0h2-|
B|---------1---------1---------3-----3------|
G|-----0---------0---------0-------2---2----|
D|---2---2-----2---2-----0---0---0----------|
A|-0---------3------------------------------|
E|---------------------3--------------------|

   Am7        C        G         D
E|--------------------------------------0h2-|
B|---------1---------1---------3-----3------|
G|-----0---------0---------0-------2---2----|
D|---2---2-----2---2-----0---0---0----------|
A|-0---------3------------------------------|
E|---------------------3--------------------|

Parte 2 De 2
   Am7        G/B  C
E|--------------------3--2------------------|
B|---------1--3----1-------3-3/5------------|
G|-----0------0----0------------------------|
D|---2---2----0----2------------------------|
A|-0----------2----3------------------------|
E|------------------------------------------|

              Am7
Tá tão complicado, Pai
       C
Eu confesso, eu tô cansado
        G
E não quero mais
     D
Tô exausto e com medo

     Am7   
Tem dias que o peito aperta
     C
Tem dias que o fardo pesa
         G
Nem que fosse arrastando
           D
Eu não volto pra trás
             Am7    G/B     C
Fica aqui comigo e não sai mais

[Refrão] 

[Tab - Dedilhado Refrão]

Parte 1 de 4
   G     
E|------------------------------------------|
B|---------3----------------3---------------|
G|-----0-------0--------0-------0-----------|
D|---0---0---0---0----0---0---0---0---------|
A|------------------------------------------|
E|-3----------------3-----------------------|

Parte 2 de 4
   D                   D2   
E|----------0h2----------------0------------|
B|-----3----------3--------3-------3--------|
G|---2---2------2---2----2---2---2---2------|
D|-0-------------------0--------------------|
A|------------------------------------------|
E|------------------------------------------|

Parte 3 de 4
   Em7
E|------------------------------------------|
B|---------3----------------3---------------|
G|-----0-------0--------0-------0-----------|
D|---2---2---2---2----2---2---2---2---------|
A|------------------------------------------|
E|-0----------------0-----------------------|

Parte 4 de 4
  C 
E|------------------------------------------|
B|---------1---------------1----------------|
G|-----0-------0-------0-------0------------|
D|---2---2---2---2---2---2---2---2----------|
A|-3---------------3------------------------|
E|------------------------------------------|

Parte 4 de 4 (Variação)
  C 
E|-------------------0----------------------|
B|---------1---------1----------------------|
G|-----0-------0-----0----------------------|
D|---2---2---2---2---2----------------------|
A|-3-----------------3----------------------|
E|------------------------------------------|

           G
És o meu alívio
                 
Tudo o que eu preciso bem aqui comigo 
             D
Pra eu continuar
              D2
Que me impulsiona todos os dias 
              Em7
Pra eu não parar

Tu és o motivo, Jesus
                      C
Que eu tenho pra avançar Ah, ah, ah

           G
És o meu alívio

A força e o ânimo 
                          D
Que eu necessito pra prosseguir
                D2
Se eu não desisti 
                                   Em7
O motivo é porque sempre esteve aqui

Nos piores momentos dizendo 
                      C
Que nunca desiste de mim 

Pra onde eu irei se o que eu preciso 
            G
Só encontro   em Ti?

[Solo] D  D2  Em7  C

[Tab - Solo]

Parte 1 de 2
E|-----------------------------------------------------|
B|-----------------------------------------------------|
G|-0-2-0-4/7-4~-----------4-5/7-4----------------------|
D|----------------9\7-5-7----------7~------------------|
A|-----------------------------------------------------|
E|-----------------------------------------------------|

Parte 2 de 2
E|--------------------------------7-8/10---------------|
B|------------------7----8~--8-10---------8--5/7-3-3/5-|
G|---------4-7-----------------------------------------|
D|-9\7-5-7-----7/9-----9-------------------------------|
A|-----------------------------------------------------|
E|-----------------------------------------------------|

[Pré-Refrão] 

[Tab - Dedilhado Pré-Refrão]

Parte 1 de 3
   Am7              C   
E|------------------------------------------|
B|---------1-----------------1--------------|
G|-----0-------0---------0-------0----------|
D|---2---2---2---2-----2---2---2---2--------|
A|-0-----------------3----------------------|
E|------------------------------------------|

Parte 2 de 3
   G                D
E|--------------------------0h2-------------|
B|---------3------------3---------3---------|
G|-----0-------0------2---2-----2---2-------|
D|---0---0---0---0--0-----------------------|
A|------------------------------------------|
E|-3----------------------------------------|

Parte 1 de 3
   Am7              C   
E|------------------------------------------|
B|---------1-----------------1--------------|
G|-----0-------0---------0-------0----------|
D|---2---2---2---2-----2---2---2---2--------|
A|-0-----------------3----------------------|
E|------------------------------------------|

Parte 2 de 3
   G                D
E|--------------------------0h2-------------|
B|---------3------------3---------3---------|
G|-----0-------0------2---2-----2---2-------|
D|---0---0---0---0--0-----------------------|
A|------------------------------------------|
E|-3----------------------------------------|

Parte 3 de 3
   Am7          G/B  C
E|----------------------3-2-----------------|
B|---------1----3----1------3--3/5----------|
G|-----0--------0----0----------------------|
D|---2---2------0----2----------------------|
A|-0------------2----3----------------------|
E|------------------------------------------|

              Am7
Tá tão complicado, Pai
       C
Eu confesso, eu tô cansado
        G
E não quero mais
     D
Tô exausto e com medo

     Am7   
Tem dias que o peito aperta
     C
Tem dias que o fardo pesa
         G
Nem que fosse arrastando
           D
Eu não volto pra trás
             Am7    G/B     C
Fica aqui comigo e não sai mais

[Refrão Final] 

[Tab - Dedilhado Refrão final]

Parte 1 de 4
   G     
E|------------------------------------------|
B|---------3----------------3---------------|
G|-----0-------0--------0-------0-----------|
D|---0---0---0---0----0---0---0---0---------|
A|------------------------------------------|
E|-3----------------3-----------------------|

Parte 2 de 4
   D                   D2   
E|----------0h2----------------0------------|
B|-----3----------3--------3-------3--------|
G|---2---2------2---2----2---2---2---2------|
D|-0-------------------0--------------------|
A|------------------------------------------|
E|------------------------------------------|

Parte 3 de 4
   Em7
E|------------------------------------------|
B|---------3----------------3---------------|
G|-----0-------0--------0-------0-----------|
D|---2---2---2---2----2---2---2---2---------|
A|------------------------------------------|
E|-0----------------0-----------------------|

Parte 4 de 4
  C                                  
E|------------------------------------------|
B|---------1---------------1----------------|
G|-----0-------0-------0-------0------------|
D|---2---2---2---2---2---2---2---2----------|
A|-3---------------3------------------------|
E|------------------------------------------|

           G
És o meu alívio
                 
Tudo o que eu preciso bem aqui comigo 
             D
Pra eu continuar
              D2
Que me impulsiona todos os dias 
              Em7
Pra eu não parar

Tu és o motivo, Jesus
                      C
Que eu tenho pra avançar Ah, ah, ah

           G
És o meu alívio

A força e o ânimo 
                          D
Que eu necessito pra prosseguir
                D2
Se eu não desisti 
                                   Em7
O motivo é porque sempre esteve aqui

Nos piores momentos dizendo 
                      C
Que nunca desiste de mim Ah, ah, ah

           G
És o meu alívio
                 
Tudo o que eu preciso bem aqui comigo 
           D
Pra eu continuar
              
Que me impulsiona todos os dias 
              Em7
Pra eu não parar

Tu és o motivo, Jesus
                      C9
Que eu tenho pra avançar Ah, ah, ah

           G
És o meu alívio

A força e o ânimo 
                          D
Que eu necessito pra prosseguir
                
Se eu não desisti 
                                   Em7
O motivo é porque sempre esteve aqui

Nos piores momentos dizendo 
                      C9
Que nunca desiste de mim

Pra onde eu irei se o que eu preciso 
            G
Só encontro   em Ti?
           D     D2         Em
És o meu alívio, És o meu alívio
           C       G
És o meu alívio, Alívio

[Tab - Solo Final]

Parte 1 de 3
E|-----------------------------------------------------|
B|-----------------------------------------------------|
G|-0-2-0-4/7-4~-----------4-5/7-4----------------------|
D|----------------9\7-5-7----------7~------------------|
A|-----------------------------------------------------|
E|-----------------------------------------------------|

Parte 2 de 3
E|--------------------------------7-8/10---------------|
B|------------------7----8~--8-10---------8--5/7-3-3/5-|
G|---------4-7-----------------------------------------|
D|-9\7-5-7-----7/9-----9-------------------------------|
A|-----------------------------------------------------|
E|-----------------------------------------------------|

Parte 3 de 3
   H.N. .   .     .
E|-----------------------------------------------------|
B|----------------12-----------------------------------|
G|---5-------------------------------------------------|
D|------5----------------------------------------------|
A|----------5------------------------------------------|
E|-----------------------------------------------------|
00:00 / 00:00
Outros vídeos desta música
Repetir
Outros vídeos desta música
3.405.386 exibições
  • Simplificar cifra
    • ½ Tom
    • A
    • Bb
    • B
    • C
    • Db
    • D
    • Eb
    • E
    • F
    • F#
    • G
    • Ab
  • Adicionar à lista

Afinação da cifra

Afinador online

    0 comentários

    Ver todos os comentários

    Entre para o Cifra Club PRO

    Tenha acesso a benefícios exclusivos no App e no Site

    • Chega de anúncios

    • Mais recursos no app do Afinador

    • Atendimento Prioritário

    • Aumente seu limite de lista

    • Ajude a produzir mais conteúdo

    00:00 / 00:00
    Capítulos
    • Tocando a Música
    • Acordes da Introdução
    • Tocando Introdução
    • Ensinando Introdução
    • Acordes da Primeira Parte
    • Tocando Primeira Parte
    • Ensinando Primeira Parte
    • Acordes do Pré-Refrão
    • Tocando Pré-Refrão
    • Ensinando Pré-Refrão
    • Tocando Refrão
    • Ensinando Refrão
    • Tocando Segundo Pré-Refrão
    • Acordes Refrão Final
    • Tocando Refrão Final
    • Ritmo Refrão Final
    • Tocando Solo Introdução
    • Ensinando Solo Introdução
    • Tocando Solo Principal
    • Ensinando Solo Principal
    • Tocando Solo Final
    • Ensinando Solo Final
    • Encerramento

    Cifra Club Pro

    Aproveite o Cifra Club com benefícios exclusivos e sem anúncios
    Cifra Club Pro
    Aproveite o Cifra Club com benefícios exclusivos e sem anúncios
    OK