Cifra Club

Move On

Jet

Cifra: Principal (violão e guitarra)
Tom: G
G C G C G C 
|------10---10---------------------------------------- 
|10/12---------12\10-8-8------------8~~~~8---------8-- 
|-------------------------------7/9---12~~~7-9-------- 
|----------------------------------------------7-9---- 
|----------------------------------------------------- 
|----------------------------------------------------- 
|----------------------------------------------------- 
 
------10-----------------------------12^-12\10-8-7--- 
10/12----12r10-8-----8---8^10-10/12------------------
------------------9----9-----------------------------
-----------------------------------------------------
-----------------------------------------------------
-----------------------------------------------------
-----------------------------------------------------
 
-----10------------------------------| 
10/12---12-10---8--8-----------------| 
-----------------------9/7/9---7\5~~~| 
-------------------------------------|
-------------------------------------| 
-------------------------------------|

ENTRA VIOLÃO 
G C G C

      G                         C
Well I been thinking about the future
G                         C  
  But I'm too young to pretend
     G                            C
It's such a waste to always look behind you
G                               C
  Should be lookin' straight ahead


D                       C         Am
Yeah, I'm gonna have to move on
                C
Before we meet again
G          D
Yeah, it's hard
        Am7              C
If you had've only seen

solo G C G C
|----------------------------------------|
|--------12-13-12--------8-10-12-13\12---|
|-12-/14----------9-9\7--7-9--11-------9-|
|----------------------------------------|
|----------------------------------------|
|----------------------------------------|

   G                    C
10.34: Finders Street Station
G                       C
  I'm lookin' down the tracks
    G                      C
Uniformed man askin' am I paid up 
G                   C
  Why would I wanna be that? 
 
D                       C         Am
Yeah, I'm gonna have to move on
                C
Before we meet again
G          D
Yeah, it's hard
        Am7              C
If you had've only seen

G        D
Take control 
           Am           C       
Don't be afraid to me 
(G  C) 4x
'Cause every once in a while
You thing about if your gonna get yourself together
You should be happy just to be alive 
And just because you just don't feel like comin' home 
Don't mean that you'll never arrive 

D                       C         Am
Yeah, I'm gonna have to move on
                C
Before we meet again
G          D
Yeah, it's hard
             Am7                 C
If you had've only seen

G       D  
Take control
           C             G
Don't be afraid of me
exibições 47.629
Acordes para:
    Composição: Cameron Muncey / Chris Cester Colaboração e revisão:
    • lucas galitesi

    0 comentários

    mostrar mais comentários

    Conseguiu tocar?

    8 tocaram 0 ainda não

    Grave um vídeo tocando Move On e mande pra gente!

    00:00 / 00:00
    outros vídeos desta música
    repetir qualidade Automático
    Outros vídeos desta música
    00:00 / 00:00
    Automático
    OK