Cifra Club

Aprenda

She's a Genius

Jet

Tab de baixo: Principal
Tuning: Standard

G|---------------------------------------------------------------------------| 
D|---------------------------------------------------------------------------| 
A|77----757-7----------------------------------------------------------------| 
E|--0-0------0-3-5-----------------------------------------------------------|

G|---------------------------------------------------------------------------|
D|---------------------------------------------------------------------------|
A|77777---------------77777--------------------------------------------------|
E|-----3-555553-555553------0------------------------------------------------|

G|---------------------------------------------------------------------------|
D|---------------------------------------------------------------------------|
A|--------7/12---------------------------------------------------------------|
E|7~-------------------------------------------------------------------------|

G|---------------------------------------------------------------------------|
D|---------------------------------------------------------------------------|
A|33333--555---5-777-----777---7---------------------------------------------|
E|-----3----57------00-5----00-----------------------------------------------|

G|---------------------------------------------------------------------------|
D|---------------------------------------------------------------------------|
A|33333--555---5-2222222222222222--------------------------------------------|
E|-----3----57---------------------------------------------------------------|


G|---------------------------------------------------------------------------|
D|---------------------------------------------------------------------------|
A|33333--555---5--33333--555---5-33333--555---5-2222222222222222-------------|
E|-----3----57---------3----57--------3----57--------------------------------|
Colaboração e revisão:
  • Raul
324 exibições

0 comentários

Mostrar mais comentários

Conseguiu tocar?

0 Tocaram 0 Ainda não

Grave um vídeo tocando She's a Genius e mande pra gente!

00:00 / 00:00
outros vídeos desta música
repetir qualidade Automático
Outros vídeos desta música
00:00 / 00:00
Automático
OK