Cifra Club

Aprenda

Aqualung

Jethro Tull

Cifra: Solo (violão e guitarra)
Já pensou em usar uma coleção de roupas do Cifra Club? Responda as perguntas abaixo e nos ajude nessa missão! →
tom: A
Parte 1 de 10
E|------------------------------------------|
B|---6--8/10~-------------------------------|
G|-7-------------3-2h3p2--------------------|
D|-----------------------3------------------|
A|-------------------------3~---------------|
E|------------------------------------------|

E|------------------------------------------|
B|------------------------------------------|
G|--------------------------5--3~-----------|
D|-----3-5-/7~------------5-----------------|
A|-3h5------------3--3-/7-------------------|
E|------------------------------------------|

E|-3---------3------------------------------|
B|---4---------3----------------------------|
G|-----5~--------3~-------------------------|
D|------------------------------------------|
A|------------------------------------------|
E|------------------------------------------|

E|------------------------------------------|
B|------------------------------------------|
G|-----------5-5-5-5------5---5-5-7p5---5---|
D|-----3-5/7-----------7----7---------7-----|
A|-3h5--------------------------------------|
E|------------------------------------------|

E|------------------------------------------|
B|-------6-8b10r8p6-------------------------|
G|---5-7-------------5--7\------------------|
D|-7----------------------------------------|
A|------------------------------------------|
E|------------------------------------------|

Parte 2 de 10
E|------------------------------------------|
B|------------------------------------------|
G|-----3---5-----------------3-3-5p3---3----|
D|-5-----------3-------3---5---------5---5~-|
A|-----------------5------------------------|
E|------------------------------------------|

Parte 3 de 10
E|------------------------------------------|
B|------------------------------------------|
G|-3-5/7~\5----3----------------------------|
D|------------------5----3------------------|
A|-------------------------5\3-1-----1-3/5--|
E|-------------------------------1h3--------|

E|------------------------------------------|
B|------------------------------------------|
G|-------3---3--3-3-3---3---5/7~\5----------|
D|-3-3-5---5----------5---5-----------------|
A|------------------------------------------|
E|------------------------------------------|

E|------------------------------------------|
B|------------------------------------------|
G|-3-5p3---3-----------3---5-3--------------|
D|-------5---------3-5---5-----3------------|
A|-----------5~-------------------5---------|
E|------------------------------------------|

Parte 4 de 10
E|------------------------------------------|
B|---------------6---------8----3/----------|
G|-----3-5/7~---------5---------------------|
D|-3h5--------------------------------------|
A|------------------------------------------|
E|------------------------------------------|

Parte 5 de 10
E|------------------------------------------|
B|---------------------6-6-6-8p6-6-6--------|
G|-----------5-5-5-5h7----------------------|
D|-----3-5/7--------------------------------|
A|-3h5--------------------------------------|
E|------------------------------------------|

E|------------------------------------------|
B|---------------6-8p6---6------------------|
G|-7--5--7p5---5-------7--------5---5-7\----|
D|-----------7-------------7------7---------|
A|------------------------------------------|
E|------------------------------------------|

Parte 6 de 10
E|------------------------------------------|
B|------------------------------------------|
G|-----3---5b7r5~---3--5b7r5---3------------|
D|-5------------------------------3-3-5--3--|
A|-----------------------------------------5|
E|------------------------------------------|

Parte 7 de 10
E|------------------------------------------|
B|--------------------------6-8-----6-8-----|
G|--------3--------3--5/7~------7-----------|
D|------5----5~-----------------------------|
A|---5--------------------------------------|
E|-3----------------------------------------|

Parte 8 de 10
E|---10---------8-----------8p6---8p6---6---|
B|-6-----8~\-------6-8----6-----6-----6---8~|
G|------------------------------------------|
D|------------------------------------------|
A|------------------------------------------|
E|------------------------------------------|

Parte 9 de 10
E|------------------------------------------|
B|-6----------------------------------------|
G|---7\5-3-5-3-5p3---3-----------3-5p3------|
D|-----------------5-----3---3-5------------|
A|---------------------5---5-----------5~---|
E|------------------------------------------|

Parte 10 de 10
E|------------------------------------------|
B|-------------------------6-8/10-----------|
G|-----------5-5-5-5h7---7------------------|
D|-----3-5/7--------------------------------|
A|-3h5--------------------------------------|
E|------------------------------------------|

E|-------13-------13-------13---------------|
B|-13h15----13h15----13h15----15~-----------|
G|------------------------------------------|
D|------------------------------------------|
A|------------------------------------------|
E|------------------------------------------|
Composição de Ian Anderson / Jennie Anderson
Colaboração e revisão:
  • Thiago Almeida
855 exibições
    • ½ Tom
    • A
    • Bb
    • B
    • C
    • Db
    • D
    • Eb
    • E
    • F
    • F#
    • G
    • Ab
  • Adicionar à lista

    0 comentários

    Ver todos os comentários
    00:00 / 00:00
    Outros vídeos desta música
    Repetir Qualidade Automático
    Outros vídeos desta música
    00:00 / 00:00
    Automático
    Capítulos
    • Tocando o Solo
    • Apresentação / Equipamentos
    • Tocando o Solo Lento
    • Encerramento

    Cifra Club Pro

    Aproveite o Cifra Club com benefícios exclusivos e sem anúncios
    Cifra Club Pro
    Aproveite o Cifra Club com benefícios exclusivos e sem anúncios
    OK