Cifra Club

All Along The Watchtower

Jimi Hendrix

Cifra: Principal (violão e guitarra)
Selo Cifra Club: esta cifra foi revisada para atender aos critérios oficiais da nossa Equipe de Qualidade.
tom: Cm
E|-6-6-8--8--8-----6-6-4-4-4----|
B|-6-6-8--8--8-----6-6-4-4-4----|
G|-7-7-8--8--8-----7-7-5-5-5----|
D|-8-8-10-10-10----8-8-6-6-6----| x4 (if you only play the rhythm part)
A|-8-8-10-10-10----8-8-6-6-6----| or x2 (if you want to play the lead part
E|-6-6-8--8--8-----6-6-4-4-4----| as well)
             *             *
Lead part:
E|-----------------------------------------------------------------|
B|----11-13-13-13-13---13--11----------------------------------11--|
G|-12-------------------------12-10vvv-8-10-8-10-10-10---10--8-----|
D|-----------------------------------------------------------------|
A|-----------------------------------------------------------------|
E|-----------------------------------------------------------------|
E|----------rb| b---------rb    b---

[Verse]
Cm  Bb   Ab    Bb

Cm           Bb              Ab         Bb    Cm         Bb           Ab   Bb
 "There must be some kind of way out of here,"  said the joker to the thief,
Cm        Bb          Ab    Bb Cm        Bb       Ab    Bb
 "There's too much confusion,    I can't get no relief.
Cm       Bb        Ab       Bb    Cm       Bb     Ab     Bb
 Businessmen, they drink my wine,  plowmen dig my earth,
Cm          Bb    Ab       Bb  Cm      Bb          Ab      Bb
  None will level on the line   nobody offered his word."

[Instrumental]
E|-6-6-8--8--8-----6-6-4-4-4----|
B|-6-6-8--8--8-----6-6-4-4-4----|
G|-7-7-8--8--8-----7-7-5-5-5----|
D|-8-8-10-10-10----8-8-6-6-6----| x4
A|-8-8-10-10-10----8-8-6-6-6----|
E|-6-6-8--8--8-----6-6-4-4-4----|

[Verse 2]
Cm           Bb              Ab         Bb    Cm         Bb           Ab   Bb
"No reason to get excited," the thief, he kindly spoke,
Cm        Bb          Ab    Bb Cm        Bb       Ab    Bb
"There are many here among us who feel that life is but a joke.
Cm       Bb        Ab       Bb    Cm       Bb     Ab     Bb
But you and I, we've been through that, and this is not our fate,
Cm        Bb    Ab       Bb   Cm          Bb           Ab      Bb
So let us not talk falsely now, the hour is getting late."

[Instrumental]
E|-6-6-8--8--8-----6-6-4-4-4----|
B|-6-6-8--8--8-----6-6-4-4-4----|
G|-7-7-8--8--8-----7-7-5-5-5----|
D|-8-8-10-10-10----8-8-6-6-6----| x4
A|-8-8-10-10-10----8-8-6-6-6----|
E|-6-6-8--8--8-----6-6-4-4-4----|

[Verse 3]
Cm           Bb              Ab         Bb    Cm         Bb           Ab   Bb
All along the watchtower, princes kept the view
Cm        Bb          Ab    Bb Cm        Bb       Ab    Bb
While all the women came and went, barefoot servants, too.
Cm      Bb          Ab     Bb  Cm       Bb     Ab     Bb
Outside in the cold distance    a wildcat did growl,
Cm         Bb          Ab    Bb      Cm           Bb         Ab      Bb
Two riders were approaching, and the wind began to howl. Yeah, Yeah.

[Chords used]
   Ab  Bb  Cm
E|-4---6---8--|
B|-4---6---8--|
G|-5---7---8--|
D|-6---8---10-|
A|-6---8---10-|
E|-4---6---8--|

******************************

| *: let ring
E|b---| : bend until end of the dotted line
| rb: release the bend
| vvv: vibrato
Outros vídeos desta música
    7.169 exibições
      • ½ Tom
      • Am
      • Bbm
      • Bm
      • Cm
      • C#m
      • Dm
      • Ebm
      • Em
      • Fm
      • F#m
      • Gm
      • G#m
    • Adicionar à lista

    Afinação da cifra

    Afinador online

      0 comentários

      Ver todos os comentários

      Entre para o Cifra Club PRO

      Tenha acesso a benefícios exclusivos no App e no Site

      • Chega de anúncios

      • Mais recursos no app do Afinador

      • Atendimento Prioritário

      • Aumente seu limite de lista

      • Ajude a produzir mais conteúdo

      Cifra Club Pro

      Aproveite o Cifra Club com benefícios exclusivos e sem anúncios
      Cifra Club Pro
      Aproveite o Cifra Club com benefícios exclusivos e sem anúncios
      OK