Enviar cifraEntrar

Come On

Jimi Hendrix

Cifra: Principal
exibições 2.523
Tom: G
Electric Ladyland
COME ON (LET THE GOOD TIMES ROLL)


I'm missing a few parts in this song, but it's all based on the same melodic riff, but
I did tab out in this song is pretty damn close to 100% I'm also missing the solo...
is too bad. But Jimi never played the solo the same way, he did a lot of improv. Some 
is to run through some of your penatonic scales, blues scales, and maybe some major
I might tab the solo later and add it to this tab... but I will probably forget. and if 
have a wah wah.. then use it

KEY:
T= thumb
h=hammer on
p=pull off
/=slide up
\=slide down
~=vibrato


INTRO:

e---6-6-6-6-6--6-6-6-6--4-4-4-4--4-4-4-4----|
B---7-7-7-7-7--7-7-7-7--6-6-6-6--6-6-6-6----|
G-------------------------------------------|
D----------------------------------------2--|
A-------------------------------------------|
E-----------------------------------------3-|b

VERSE:

e----------------------------------------|
B----------------------------------------|
G----------------------------------------|
D-2-------------------2----2-------------|    4x
A----------------------------------------|
E-----------------------3bp0-------------|
B----------------------------------------|

and then:

e----------------------------------------|
B----------------------------------------|
G----------------------------------------|
D----------------------------------------|
A-----5----------------------------------|
E--5h7-5h7-3h5-0-------------------------|


Chorus:

e---------------------------------------------|
B-----8--8--8-8-x-----------------------------|
G-----7--7--7-7-x-6--6------------------------|
D-----6--6--6-6-x-5----------5----------------|
A-----7--7--7-7-x-4-------5h7-5-h-7-----------|
E----------------------5h7--------------------|


e----------------------------------------------|
B--8--8--8-8-x--8------------------------------|
G--7--7--7-7-x--7---9h7--------9h7-------------|
D--6--6--6-6-x--6-------9h7--------9h7----7----|
A--7--7--7-7-x--7---------10p7-------10b-------|
E-0---------------- ---------------------------|


e------------------------------------------------|
B------------------------------------------------|
G--6--6--6-6--------4-4--------------------------|
D--5--5--5-5---5-7b-----7-5-7---5----------------|
A--4--4--4-4------------------7------------------|
E-0----------------------------------------------|


e------------------------------------------------|
B--8--8--8-8-------------------------------------|
G--7--7--7-7-------------------------------------|
D--6--6--6-6---5------5--------------------------|
A--7--7--7-7--------5---2------------------------|
E-0-------------3h5-------5----------------------|


e--------------------------------------------|
B---8--8--8-8--------------------------------|
G---7--7--7-7--------------------------------|
D---6--6--6-6--------------------------------|
A---7--7--7-7----7-10/12-10-7----7-----------|
E--7-----------10-------------10---0---------|


e--------------------------------------------|
B--8--8--8-8-x-------------------------------|
G--7--7--7-7-x-8-8--8------------------------|
D--6--6--6-6-x-7-7--7------------------------|
A--7--7--7-7-x-7-7--7------------------------|
E--------------------------------------------|


verse:

chorus #2:

e---------------------------------------------------------|
B--8--8--8-8-x--------------------------------------------|
G--7--7--7-7-x--6-6-6-6-----------------------------------|
D--6--6--6-6-x--5-5-5-5-5-5-2-----------------------------|
A--7--7--7-7-x--4-4-4-4-----------------------------------|
E-----------------------------0---------------------------|


e---------------------------------------------|
B--8--8--8-8---8--8-8-8-8---------------------|
G--7--7--7-7---7--7-7-7-7---------------------|
D--6--6--6-6---6--6-6-6-6---------------------|
A--7--7--7-7---7--7-7-7-7---------------------|
E------------0--------------------------------|


e----------------------------------------------|
B----------------------------------------------|
G---6--6-6---6--6-6-6-6------------------------|
D---5--5-5---5--5-5-5-5------------------------|
A---4--4-4---4--4-4-4-4------------------------|
E--5-------5-----------------------------------|


e-------------------------------------------------------|
B---8--8-8-x-8--8-8-8-8---------------------------------|
G---7--7-7-x-7--7-7-7-7---------------------------------|
D---6--6-6-x-6--6-6-6-6---------------------------------|
A---7--7-7-x-7--7-7-7-7---------------------------------|
E--0----------------------------------------------------|


e-----------------------------------------------------------|
B------7--7-7------5--5-5------------------7--7--7-7--------|
G------8--8-8------6--6-6------------------7--7--7-7--------|
D--5---9--9-9------7--7-7------5-----------6--6--6-6--------|
A---------------------------5-7-7-5-7------7--7--7-7--------|
E----7--------6--5---------5-------------0------------------|

     T        T  T         T
before the solo


e-------------------------------------------------------|
B-------------------------------------------------------|
G--4-5-6-7-8-9-10-11-12---------------------------------|
D--4-5-6-7-8-9-10-11-12---------------------------------|
A--2-3-4-5-6-7-8--9--10---------------------------------|
E--2-3-4-5-6-7-8--9--10---------------------------------|

             ^turn on your wah with the pedal all the way down

the solo starts

verse:

chorus
another solo and if fades to the outro
  • 1
  • 2
  • 3
  • 4
  • 5
  • 6
  • 7
  • 8
  • 9
  • 10
  • 11
  • 12
    Acordes para:
      Composição: Earl King

      0 comentários

        mostrar mais comentários

        Conseguiu tocar?

        0tocaram0ainda não

        Grave um vídeo tocando Come On e mande pra gente!

        00:00 / 00:00
        outros vídeos desta música
        repetirqualidadeautomática
        • automática
        Outro vídeos desta música
          00:00 / 00:00
          automática
          • automática
          Acordes para:violão e guitarra
          dificuldadeexibiçõescontribuições
          1 versão de Guitar Proformatodownloadscontribuição
          fecharplay/pause subir/descer velocidade
            Acordes para:violão e guitarra
            acordes
            fechar
            OK