Cifra Club

Country Blues

Jimi Hendrix

Cifra: Principal
exibições 2.794
Tom: C#
This is just the main part, which is played during the first few minutes of the song.
This doesn't include the beginning part, in which Hendrix is just soloing and stuff like that.
This is just the basic outline, and he adds stuff in there, which is what made him such 
great guitarist.
Just add your own little stuff into this when playing.
(I would play it legatto, or smoothly)

Bb

e----------------------------------------------------------------------------|
B----------------------------------------------------------------------------|
G----------------------------------------------------------------------------|
D---------------------------------------------8------------------------------|
A--------------------------8-------8/10---------------10/11----10-8---8/10-8-|
E--6----x----x---8/10--------------------------------------------------------|2x


Eb

e-----------------------------------------------------------------------|
B-----------------------------------------------------------------------|
G----------------------------------------8------------------------------|
D-----------------------8------8/10------------10/11---10-----8/10-8----|
A---6-x-x----8/10-------------------------------------------------------|
E-----------------------------------------------------------------------|



Bb

e----------------------------------------------------------------------------|
B----------------------------------------------------------------------------|
G----------------------------------------------------------------------------|
D---------------------------------------------8------------------------------|
A--------------------------8-------8/10---------------10/11----10-8---8/10-8-|
E--6----x----x---8/10--------------------------------------------------------|


e----------------------------------------------------|
B----------------------------------------------------|
G----------------------------------------------------|
D-----------------6-6-6-------------6-6-6------------|
A-----8/4---4-4---4-4-4-----4-4-----4-4-4------------|
E----------------------------------------------------|


e--------------------------------|
B--------------------------------|
G--------------------------------|
D---------5-5-5------------4-4-4-|
A--3-3----3-3-3-----2--2---2-2-2-|
E--------------------------------|


And then you can repeat and mix it up.
Like, instead of the last 2 parts above, play it like this:


e-----------------------------------------------|
B-----------------------------------------------|
G---------------------6-------------6-----------|
D------------------6---6----------6--6----------|
A-8----8/4---4-4---4----4----4-4--4---4---------|
E-----------------------------------------------|


e---------------------------------|
B---------------------------------|
G----------5--------------4-------|
D--------5--5-----------4--4------|
A--3-3---3---3---2--2---2---2-----|
E---------------------------------|


Thats the basic parts... Have fun, and Please Rate it.
Tabbed By Dan Anderson (Darkstar25)
Email: D*
Acordes para:
    Composição: Jimi Hendrix

    0 comentários

      mostrar mais comentários

      Conseguiu tocar?

      0tocaram0ainda não

      Grave um vídeo tocando Country Blues e mande pra gente!

      00:00 / 00:00
      outros vídeos desta música
      repetirqualidadeautomática
      Outro vídeos desta música
        00:00 / 00:00
        automática
        OK