Enviar cifraEntrar

Hey Joe

Jimi Hendrix

Cifra: Principal
exibições 304.017
Tom: A
(intro)

E|---0----0------------------------0--------------------|
B|---3/5--5\3----------------------0--------------------|
G|-------------4\2--0-0h1-----(1)--1-----6/7----7----6--|
D|--------------------0h2------2----------------5----4--|
A|---------------------------------------4/5----5----4--|
E|--------------------------0----------0------0----0----|

                                   

E|------------------------------------------------------|
B|-------------7----7------------1-------3-3------------|
G|-4--4-----7--7-7--7------------0-------4-4------------|
D|-2--2-----7h9--7h9--9\------------------------0-------|
A|-2--2--------------------/3-3-----3---------2---------|
E|-0--0--0----------------------------3------------3/5--|


E|------------------------------------------------------|
B|------------------------------------------------------|
G|---7-7------------------------------1---x-------------|
D|-7--------5/7---7----7-7--7-7-------2---x--0-0--------|
A|-5-----7--7/9---7----7-7--7-7-------2--(0)-0-0--2-----|
E|----------------5--5---5--5-5--0------------------3---|


E|-----------------------------------------5------------|
B|-----------0--------------------5------3-3-3-3--------|
G|-----1---1-1-----1---x-x--------5------4---4-4--------|
D|-----2---2-2p0-0-2---x-x--------5------5---5-5--------|
A|-----2---------0-2---x-x---3-3-----3------------------|
E|-0---0-------------0-----------------3-----------3/5--|


E|------------------------------------------------------|
B|-----------------------------0---------0----0----0-0--|
G|-7--7----------2-------2-----2---2-----1----1----1-1--|
D|-7--7--7-------2-------2-------x-2-----2----2------2--|
A|-5-----7---9---0---------------x-------2----2---------|
E|-5---------------------------------3b--0----0---------|


E|------------------------------0-----------------0-----|
B|------------------0---0-------0-------3--3--5---3-----|
G|--------------1---1---1----1-----2/4--4--4---------4--|
D|--------------2-------2----2--------------------------|
A|--------------2-------2-------------------------------|
E|--0--3--0--3--0-------0-------------------------------|


E|----------------------------5------5------------------|
B|-0--------1--------------3--3--3---3------3---------7-|
G|-0--------0-----0---4----4-----4------4---4---------7-|
D|--------------------5-----------------5------5/7--7-7-|
A|----3--3------------x------------------------7/9------|
E|--------------------3---------------------------------|


E|----------7--7------7---------------------------------|
B|----------5--5---5--5----------------------9----------|
G|----------6------6-----6----------9-----9--9----------|
D|--7---7---7------7-----7----------9--x--9--9----------|
A|----------------------------------7--x----------------|
E|----------------------------0------------------5/7--5-|


E|------------------------------------------------------|
B|-------------------0-----------0-----x--0--0----------|
G|-------------------1--1----0---0-----x--0--1----------|
D|----------0h2---2--2--2----0---0-----x----------------|
A|--5-------0h2------------------0------------------3-3-|
E|-----3b---0------------------------------------0------|


E|---0----------------5-------3-------------------------|
B|---1---------3------3----3--3--3-------7---\5/7--5----|
G|---0---------4------4----0-----0-------7---\5/7--5----|
D|-------------5-------------------------7--7\5/7--5----|
A|--------3-------------------------7h9-----9\7/9--7----|
E|------------------------------------------------------|


E|----------5-----------------------------------------0-|
B|-------5--5--5-----------0--------------------------0-|
G|-------6-----6--7--7-----1-----------1-1---------4----|
D|--7----7-----7--7--7-----2-----------2-2-----0---2----|
A|--x----------------------2-----2-------2--2--0---2----|
E|--5----------------------0-----0-------0--------------|


E|-0----0--0--------------0-------------------0---------|
B|-0----0--0-----------------0----------------1-------3-|
G|-0h1--1--1--------1--------1----------------0-------4-|
D|-2----2--2------0-2--x------------------------------5-|
A|---------------------x-------------2--3--3----------x-|
E|-------------4/------4--------4--5---------------3--3-|


E|--7--3----------------------------------------0-------|
B|-----3----------------------------------------0-------|
G|-----4----------7---------------6--6-------1------7---|
D|----------------7--7--7---------7--7-------2------7-7-|
A|-------------5--5--7--8h9--7----7--7-------x----------|
E|--------3h5----------------5----5--5--5/7--0----------|


E|------------------------------------------------------|
B|----------9----------9---9\7--7--7--7\9--9--9--9--7\9-|
G|----9-----9----9--9--9---9\7--7--7--7\9--9--9--9--7\9-|
D|----9--9--9----9--9--9---9\7--7--7--7\9--9--9--9--7\9-|
A|----7----------7--7-----------------------------------|
E|------------------------------------------------------|


E|---------------------------0--------------------------|
B|--10----9------------------1---------------------3-3--|
G|--9-----9-------0----------0------4--0--0-0--0---2-2--|
D|--11----9---0---------------------5--5--5-5--5---0-0--|
A|---------------------3--3------3--x-------------------|
E|----------------------------------3-------------------|


E|----------------7-7-7-7-5-5----4------4---------4-----|
B|----------------5-5-5-5-5-5----5------5---------5-----|
G|----------------6-6-6-6-6-6----4------4---4-----4-----|
D|-2--2/4---------7-7-7-7-7-7----6---6------6-----6-----|
A|---------2--0------------------x----------------x-----|
E|-------------------------------0----------------0-----|


E|--4-4---4-4-4--2/4-4--4-4--4-4--0---------------------|
B|--5-5---5-5-5-------------------0---0---0-0-0---x-----|
G|--4-4---4-4-4--2/4-4--4-4--4-4------1---1-1-1---x-----|
D|--6-6---6-6-6-----------------------2---2-2-2---x-----|
A|------------------------------------2-------2---------|
E|------------------------------------0-------0-----3/5-|


E|--------0--------5--5p3-------------------------------|
B|--------1--1--3--3--3-----3----3-3-3--3-3--2---2---2--|
G|--------0--0--4--4--4-----4-2--2-2-2--2-2--2---2---2--|
D|-----------2--5-----------5-0--0-0-0--0-0--2---2---2--|
A|--3--3-----3--x----------------------------0---0---0--|
E|--------------3---------------------------------------|


E|--------------------------0---------------------------|
B|---2--2----2-2---2---0----0--------x------------------|
G|---2--2----2-2---2---1----1--2--2--x--12------12b-----|
D|---2--2----2-2---2---2----2--2--2--x--12--14-------14-|
A|---0--0----0-0---0---2----2---------------------------|
E|---------------------0----0---------------------------|


E|--------------------------------------------------0---|
B|-----0-----0--------------------------------------1---|
G|-----1-----1-----1----0---1-----------------------0---|
D|-----2-----2-----2----0---2------2------0-------------|
A|-----2-----------2---------------2----------3--3------|
E|-0---------------0-----------0---0--------------------|


E|------------5--4-------4--------------------------5---|
B|------0--3--3--3----3--3----------7---------------5---|
G|---0-----0--0--0----0--0-----7----7---7--7--------6---|
D|---------0--0--0----0--------7----7---9--7--7-----7---|
A|---------x-------------------7h9--9---------9-----x---|
E|---------3----------------------------------------5---|


E|----5--7p5------------------------------0--0-0-0-0-0--|
B|----5--5------5---5\---9-------9--------0--0-0-0-0-0--|
G|----6--6------6---6\---9-------9---9-9--1--1-1-1-1-1--|
D|----7--7------7---7\---9----9--9---9-9--2-------------|
A|-----------------------7----7--7---7-7--2-------------|
E|-------------------------------0--------0-------------|


E|-2/4--4-4-4-4-4-4-4-4-4-4-4-4-4-4-4-4-4-4-4-4-4-4-4-4-|
B|------3-3-3-3-3-3-3-3-3-3-3-3-3-3-3-3-3-3-3-3-3-3-3-3-|
G|-2/4--4-4-4-4-4-4-4-4-4-4-4-4-4-4-4-4-4-4-4-4-4-4-4-4-|
D|------------------------------------------------------|
A|------------------------------------------------------|
E|------------------------------------------------------|




[Guitar Solo]


E|-------12-------------------------------12-12-12------|
B|-15B~~~---15-12--------------------15B~~---15-12------|
G|-------------12-14B-14p12---12~~~~~--------------14B~~|
D|-------------------------h14--------------------------|
A|------------------------------------------------------|
E|------------------------------------------------------|


E|------------------------------------------------------|
B|-12---------------------------------------------------|
G|----14--12h14p12b------12--12--------------12~~~------|
D|-------------------14----14-----------1214------14\---|
A|----------------------------------\14---14------------|
E|-------------------------------0----------------------|


E|-------------------------------12-12-12------12-------|
B|--15B|----------15B~~~~~~~~~~~~-12-15-12-12B|--12-15----|
G|----------------------------------------14B|--------14b|
D|------------------------------------------------------|
A|------------------------------------------------------|
E|------------------------------------------------------|


E|-------------------------------------12-15B~~~12------|
B|-12-------------------------------12------------------|
G|-----------14-12~~~~~~~~~~~-14B|-----------------14B|---|
D|-----0--14--------------------------------------------|
A|------------------------------------------------------|
E|------------------------------------------------------|


E|-----12-----------------------------------------------|
B|--15-----15-------------------------------------------|
G|-------------14--12B~~~~~~~~~~~~~~--------------------|
D|-----------------------------------14/-----/16--14-16-|
A|-------------------------------------------/16--------|
E|----------------------------------------0-------------|


E|------------------------------------------------------|
B|-12~~~~~~~~-------------------------------------------|
G|------------------------------------------------------|
D|------------14\---------------------------------------|
A|------------14\--------14/----------------------------|
E|-------------------/10--------------------------------|




[Interlude]


E|--------------------------------------------------0---|
B|--------------------------------------------------0---|
G|------------------------------------------------------|
D|-----------------------------------------------9------|
A|-3------------2--3--4--5--------------4--5--6--7------|
E|---0--1--2--3-------------2--3--4--5-----------0------|


E|--0-----------------------------------0---------------|
B|--0---------7--7----------------------0-9p7--9-9-7-9--|
G|------------7--7-----7--7------9--------9p7--9-9-7-9--|
D|-----7h9p7-----7--7--7--7--9---9--9-----9p7--9-9-7-9--|
A|------------------------------------------------------|
E|------------------------------------------------------|


E|------------------------------------------------------|
B|--9--9------------------------------------------------|
G|--9--9--9--9--7h9---9--7--9---------------------------|
D|--9--9--9--9--7h9---9--7--9---------------------------|
A|------------------------------------------------------|
E|-----------------------------12/----------------------|


Verse


E|----------8---8-------------7--7----------------------|
B|----------8---8----------8--8--8-------------7--------|
G|----9--9---------7----7-----7--7-----------7-7--7-----|
D|----10-10--------7h9--------9--9--9\-----7-7-7--7--7--|
A|--------------------------------------5--5-5-5--5--x--|
E|-8-------------------------------------------------5--|


E|--------7---5----0--0--0--0--0--0--0--0---0-----------|
B|--5---5-5---5----5--5--5--3--5--3--5--0---0-----------|
G|--6---6-6---6-----------------------------1---1----1--|
D|--7---7-7---7---------------------------------2--0-2--|
A|--x----------------------------------------------2-2--|
E|--5----------------------------------------------0-0--|


E|-0----------0--0-----0--0--0--0---------------3-3-5-5-|
B|-0----0--0--3--5--3--3--3--3--3---------------3-3-3-3-|
G|------------------4----------------------5----4-----4-|
D|-----------------------------------------5--5-5-------|
A|--------------------------------0--3--3-----3-x-------|
E|----------------------------------------------3-------|


E|-----3----------------------------------------0--0----|
B|-3-3-3--------7---7---0---5--5-5-5-5-5--------0--0----|
G|-4-4--------7-7-7-7-7-----6--6-6-6-6-6-----1--1-------|
D|--------7---7---7---7---7-7--7-7-7-7-7-----2--2-------|
A|--------7h9-----9-------x------------------2----------|
E|------------------------5---------------0--0----------|


E|-0--0--0--0-------------------------------------------|
B|-0--0--0--0-----------------------12------------------|
G|-1--1--1--1--------12--12--14--12-12---14--12---------|
D|-2--2--2--2--------12--12--14--12------x---x-----12-14|
A|-------------12h14---------------------15--14-14----14|
E|------------------------------------------------------|


E|---------------------3--3-----------------------------|
B|---------------------3--3----------7--7--7------------|
G|---5--5--5-----------4--4----------7--7--7--7---------|
D|---5--5--5-----------5--5-----0h9--9--9--7--7---------|
A|3--3--3--3-----------x------0---------------9--7--5---|
E|------------2/3--3-3-3------------------------------5-|


E|-5--5--------------0---------------------------0----0-|
B|-5--5--------------0------------------------0--0--0-0-|
G|-6--6--------------1--2--4------------------------1---|
D|-7--7--------------2--2--2------4b-2----0h2-----------|
A|-------------------x---------2--------2---------------|
E|--------5p0--0--0--0----------------------------------|


E|--------0---------------------------------------------|
B|-----0--0---------------------------------------------|
G|--1--------1---0-0------------------------------------|
D|-----------2-----1------------------------------------|
A|-----------x-----2---3------------2--3--4--5----------|
E|-----------0----------0--1--2--3--------------2--3--4-|


E|-----------------------------------------------0------|
B|----------------9--9--9p7--7--7---------9------0------|
G|----------------9--9--9p7--7--7------9--9--9----------|
D|-------------9--9--9--9p7--7--7--7h9-9--9--9----------|
A|----4--5--6--7----------------------------------------|
E|-5-----------0----------------------------------------|


E|------------------------------------------------------|
B|---10--10--9--9------9-----9--9--9--------------------|
G|-9-----9---9--9---9--9-----9--9--9---9--9---9\--------|
D|-9h11---------12-----12-------12-12--11-11--9\--------|
A|------------------------------------------------3--3--|
E|------------------------------------------------------|


E|-0-----------5--3--5--3----------5p3------------------|
B|-1--1--0--3--3--3--3--3--5--3----3--------------------|
G|-0--0--0--4--4--4--4--4--4--4---------------2--2-2-2--|
D|----------5--5--5--5--5--5--5--0------2--3--2--2-2-2--|
A|----------x---------------------------------0--0-0-0--|
E|----------3-------------------------------------------|


E|-----0--0--------------0------0-0-0---0---------------|
B|--0--0--0--------------0--0-0-0-0-0---0----0----------|
G|--1--1--1---------1----1--1-1-1-1-1---1----1----------|
D|--2------------0----2--2--2-2-2-2-2---2----2----------|
A|--2---------2----------2------------------------------|
E|--0--------------------0-----------------------12/----|


E|--------------------------------------------------0---|
B|--------------------------------------------------0---|
G|--------------------------------------------------1---|
D|--------------------------------------------------2---|
A|--3--------------2--3--4--5--------------4--5--6--2---|
E|-----0--1--2--3--------------2--3--4--5-----------0---|


E|--0---0--2/4--4~~~~~~~~~~~~~~~~---0------0--0--0------|
B|--0-------------3------3----------0------0--0--0------|
G|---------2/4--4------4----4-------1------2--2--2-2B|---|
D|----------------------------------2-------------------|
A|----------------------------------2-------------------|
E|------------------------------0---0-------------------|


E|--0--0------------------------------------------------|
B|--0--0------------------------------------------------|
G|--2--1------------------------------------------------|
D|--0-----2p0-------------------------------------------|
A|-------------3-------------2--3--4--5--------------4--|
E|---------------0--1--2--3--------------2--3--4--5-----|


E|------------------------------------------------------|
B|------------------------------------------------------|
G|------------------------------------------------------|
D|------------------------------------------------------|
A|--5--6-----7~~~~~~~~----------------------------------|
E|------------------------------------------------------|
  • 1
  • 2
  • 3
  • 4
  • 5
  • 6
  • 7
  • 8
  • 9
  • 10
  • 11
  • 12
    Acordes para:
      Composição: Billy Roberts / Dino ValentiColaboração e revisão:
      • pablo santos
      • Jefferson Sousa

      0 comentários

        mostrar mais comentários

        Conseguiu tocar?

        30tocaram4ainda não

        Grave um vídeo tocando Hey Joe e mande pra gente!

        00:00 / 00:00
        outros vídeos desta música
        repetirqualidadeautomática
        • automática
        Outro vídeos desta música
          00:00 / 00:00
          automática
          • automática
          fecharplay/pause subir/descer velocidade
            Acordes para:violão e guitarra
            acordes
            fechar
            OK