Cifra Club

Hey Joe

Jimi Hendrix

Cifra: Principal (violão e guitarra)
tom: E
[Riff da Introdução]

E|-0------0----------------------0---------------------|
B|-3/5----3----------------------3---------------------|
G|-------------2b3r2p0-----------1---------------------|
D|---------------------0h2-------2---------------------|
A|-----------------------------------------------------|
E|--------------------------0-------0------------------|

E|-------------------------0---------------------------|
B|-------------------------0-----------7-----7---------|
G|-------------------------1-----------7-----7---------|
D|-/5-----/5-----4---------2-------7h9---7h9---9\------|
A|-/5-----/5-----4-------------------------------------|
E|------0------0------0-------0------------------------|

C  G      D  A
  Hey Joe

Where you goin' with 
      E
That gun in your hand?
C  G      D  
  Hey Joe
          A
I said, where you goin' with 
      E
That gun in your hand?
C                     G               
  I'm goin' down to shoot 
            D
My old lady
            A 
You know I caught her messin' 'round 
       E
With another man

C                     G               
  I'm goin' down to shoot 
            D
My old lady
            A 
You know I caught her messin' 'round 
       E
With another man

And that ain't too cool

C  G      D  A
  Hey Joe
                       E
I heard you shot your woman down

You shot her down, down
C  G      D  A
  Hey Joe
                           E
I heard you shot your old lady down

You shot her down to the ground

C      G                 D 
  Yes, I did, I shot her
      A                             
You know I caught her messin' 'round
 E
Messin' 'round town
C      G                 D
  Yes, I did, I shot her
            A
You know I caught my old lady 
 E
Messin' 'round town

And I gave her the gun and I shot her


[Solo]

E|----------12-----------------------------------------|
B|-15b17-------15-12-----------------------------------|
G|-------------------14b16r14p12----12-----------------|
D|-------------------------------14--------------------|
A|-----------------------------------------------------|
E|-----------------------------------------------------|

E|----------12-----------------------------------------|
B|-15b17-------15-12---------12------------------------|
G|-------------------14b16------b16r14--12h14--12------|
D|-------------------------------------------------14\-|
A|-----------------------------------------------------|
E|-----------------------------------------------------|

E|-----------------------------------------------------|
B|-12----12\--------------12---------------------------|
G|-12----12\--------------12h13p12h13p12---------------|
D|----14------------12h14----------------14\-----------|
A|--------------/14------------------------------------|
E|-----------------------------------------------------|

E|--------------------12----------------12-------------|
B|-15b17~---15b17~-------15-12-------------15------12--|
G|-----------------------------14b16----------1416-----|
D|-----------------------------------------------------|
A|-----------------------------------------------------|
E|-----------------------------------------------------|

E|-----------------------------------------------------|
B|-----------------------------------------------------|
G|-------14-12~----------------------------------------|
D|-12-14-----------------------------------------------|
A|-----------------------------------------------------|
E|-----------------------------------------------------|

E|-------------12-15b17r15~--12------------10-12-10----|
B|---------12---------------------------10-------------|
G|-12b14------------------------14b16------------------|
D|-----------------------------------------------------|
A|-----------------------------------------------------|
E|-----------------------------------------------------|

E|-----------------------------------------------------|
B|-----------------------------------------------------|
G|-14b16---12h13p12h13p...-----------------------------|
D|----------------------------14\----------------------|
A|-----------------------------------------------------|
E|-----------------------------------------------------|

E|-----------------------------------------------------|
B|-----------------------------------------------------|
G|------------12h13p12h13p...--------------------------|
D|------14-16------------------14\---------------------|
A|-/14-------------------------14\---------------------|
E|-----------------------------------------------------|


[Interlúdio]

E|-----------------------------------------------------|
B|-----------------------------------------------------|
G|-----------------------------------------------------|
D|-----------------------------------------------------|
A|-3---------2-3-4-5---------4-5-6---------------------|
E|---0-1-2-3---------2-3-4-5---------------------------|


C  G                D  A
  Hey Joe, said now
                     E     
Where you gonna run to now

Where you gonna run to?

C  G              D  A
  Hey Joe, I said
                       E
Where you goin' to run   to now

Where you, where you gonna go?
             C
Well, dig it
               G         D  A
I'm goin' way down south
         E
Way down   to Mexico way


Alright
I'm goin' way down south
Way down where I can be free
Ain't no one gonna find me, baby

C           G            D
  Ain't no hangman gonna
                A                 E
He ain't gonna put a rope around me

You better believe it right now

I gotta go now


Hey, hey, hey Joe
You better run on down
Goodbye everybody, ow
Hey, hey, hey Joe
00:00 / 00:00
Outros vídeos desta música
Repetir
Outros vídeos desta música
Composição de Billy Roberts / Dino Valenti
Colaboração e revisão:
  • Vinícius Dias
54.002 exibições
  • Simplificar cifra
    • ½ Tom
    • A
    • Bb
    • B
    • C
    • Db
    • D
    • Eb
    • E
    • F
    • F#
    • G
    • Ab
  • Adicionar à lista

    0 comentários

    Ver todos os comentários

    Entre para oCifra Club PRO

    Tenha acesso a benefícios exclusivos no App e no Site

    • Chega de anúncios

    • Prioridade de compra em lançamentos

    • Mais recursos no app do Afinador

    • Atendimento Prioritário

    • Descontos nos produtos Cifra Club

    • Ajude a produzir mais conteúdo

    00:00 / 00:00
    Capítulos
    • Tocando a Música
    • Apresentação / Equipamentos
    • Ensinando Introdução
    • Acordes da Música
    • Ritmo da Música
    • Ensinando Solo
    • Encerramento

    Cifra Club Pro

    Aproveite o Cifra Club com benefícios exclusivos e sem anúncios
    Cifra Club Pro
    Aproveite o Cifra Club com benefícios exclusivos e sem anúncios
    OK