Cifra Club

Hey Joe

Jimi Hendrix

Tab de baixo: Principal
exibições 23.666
HEY JOE by Guilherme

INTRO

G|------------|--------------------------|--------7----7------|
D|------------|--------------------------|----7h9---7h9--9----|
A|------------|--------------------------|--------------------|
E|------------|--------------------------|--------------------|

VERSE I:
       e e e q e e   e e e q e e   q q e s s+s s e   q q q q     
+---+--------------+-------------+-----------------+-----------+
|4:-|*---R---------|---R---------|-----R-----------|-----------|
|4:-|*-3---3---2-4-|-5---5---5-6-|-7-7-----5-5---5-|-7-7-7-7/X-|
+---+--------3-----+-------5-----+-------7-----7---+-----------+


VERSE II:
  e e e q e e   e e e q e e   q q e s s+s s e   e e e e e e e e    
+-------------+-------------+-----------------+-------------------+
|---R---------|---R---------|-----R-----------|-------------------|
|-3---3---2-4-|-5---5---5-6-|-7-7-----5-5---5-|-7-7-7-7-7-7-7-7/X-|
+-------3-----+-------5-----+-------7-----7---+-------------------+

  e e e e e e e e   e e e e e e e e   q q e s s+s s e   e e e e e e e e  
+-----------------+-----------------+-----------------+-----------------+
|-----------------|-----------------|-----R-----------|-----------------|
|-3---------2-3-4-|-5---------4-5-6-|-7-7-----5-5---5-|-7-7-7-7-7-7-7-7-|
+---0-1-2-3-------+---2-3-4-5-------+-------7-----7---+-----------------+


FADE OUT:
  e e e e e e e e   e e e e e e e e  
+-----------------+-----------------+
|-----------------|-----------------|
|-3---------2-3-4-|-5---------4-5-6-|
+---0-1-2-3-------+---2-3-4-5-------+


PERFORMANCE NOTES:


VERSE I:
Nine repeats

VERSE II:
Four repeats

FADE OUT



_______________________________________________________
Composição: Billy Roberts / Dino ValentiColaboração e revisão:
  • Gabriel Leite
  • Guilherme

0 comentários

    mostrar mais comentários

    Conseguiu tocar?

    1tocaram0ainda não

    Grave um vídeo tocando Hey Joe e mande pra gente!

    00:00 / 00:00
    outros vídeos desta música
    repetirqualidadeautomática
    Outro vídeos desta música
      00:00 / 00:00
      automática
      OK