Cifra Club

Jonny be Good

Jimi Hendrix

Cifra: Principal (violão e guitarra)
tom: C
E|----7-9-/7-7-7-7--/7-7-7-7----------10p9p7------------------------|
B|-/8----------------------------------------7h8----8-8-8-8-8-8-8-8-|
G|-----------------------------------------------9--7-7-7-7-7-7-7-7-|
D|--------------------------------------------------9-9-9-9-9-9-9-9-|
A|--------------------------------------------------7-7-7-7-7-7-7-7-|
                        2x(chorus riff)
E|---------------------| |---------------------------------||
B|----7-9-7------------| |-7-----7--7----7--7----7--7----7-||
G|-/8-------8\6-4------| |-9(11)----9(11)---9(11)---9(11)--||
D|-----------------6-4-| |---------------------------------||
A|---------------------| |---------------------------------||
E|---------------------| |---------------------------------||

E|-7---------10-9-7---------------------------------------|
B|---10-9-7---------10-9-7-7------7-----------------------|
G|-------------------------9(11)-(11)9-7-----7(8)---------|
D|---------------------------------------9-7------9-------|
A|---------------------------------------------------9-9~-|
E|--------------------------------------------------------|

||-/7-7-7-7-7----------||
||-/7-7-7-7-7-9-7(8)---||
||------------9-7(8)---||
||-------------------9-||
||---------------------||
||---------------------||

[Solo]
                      slow bend     slow trill
E|----------------------------------------------------|
B|-9(11)9(11)9(11)9(11)-7-----------------------------|
G|-9(11)9(11)9(11)9(11)-9(11)~~9p7----9p7h9p7h9p7h9p7-|
D|----------------------------------------------------|
A|----------------------------------------------------|
E|----------------------------------------------------|
repete o "riff a" e o "riff b"

E|-------------------------------7-------------10------------------------|
B|-----------------------------7---10(12)~-/12----10h12p10----10--10(12)-|
G|-9(11)(12)(11)9-7(8)---9(11)-----------------------------11------------|
D|---------------------9-------------------------------------------------|
A|-----------------------------------------------------------------------|
E|-----------------------------------------------------------------------|

E|-------7-------------------------|
B|-7-------10p7-------7------------|
G|-9(11)--------9(11)---9p7---7----|
D|--------------------------9------|
A|------------------------------9~-|
E|---------------------------------|

wah on high treble
E|-12------------------------------------------------------------------|
B|-15(17)~~-12-15(17)15p12----12~~------15-17-17(19)~~-(19)17p15----15-|
G|-------------------------14-------/16--------------------------16----|
D|---------------------------------------------------------------------|
A|---------------------------------------------------------------------|
E|---------------------------------------------------------------------|

E|---------------------|
B|-7-------------------|
G|-9(11)~--(11)9p7-----|
D|-----------------9---|
A|-------------------9-|
E|---------------------|

E|-10(12)10(12)10p7-------------------------------------------------|
B|------------------10p7---7-------7----------------7-10p7-------7--|
G|-----------------------9---9(11)---(11)9p7---9(11)-------9(11)----|
D|-------------------------------------------9----------------------|
A|------------------------------------------------------------------|
E|------------------------------------------------------------------|

E|--------------------------------------------|
B|-7-----7-10p7-------------------------------|
G|-9(11)--------9p7-----------7-9(11)9p7------|
D|------------------9p7-----9------------9----|
A|----------------------9-7----------------9~-|
E|--------------------------------------------|

E|---------------------------------------10(12)-10~--10--------10--7--------7|
B|-7--------10(12)-10(12)-10(12)-10(12)~----------------10(12)-------10(12)--|
G|-9(11)~9-------------------------------------------------------------------|
D|---------------------------------------------------------------------------|
A|---------------------------------------------------------------------------|
E|---------------------------------------------------------------------------|

E|-----7--------------|
B|-------10(12)10p7---|
G|-7h8--------------9-|
D|--------------------|
A|--------------------|
E|--------------------|

E|---------------------------------------------------------------------------|
B|-----------------------10(12)10--10(12)~--10p7-----------------------------|
G|-7(9)7(9)7(9)7(9)7(9)--------------------------9----7-9-----7h9(11)-9p7---7|
D|-------------------------------------------------/9-----7h9-------------9--|
A|---------------------------------------------------------------------------|
E|---------------------------------------------------------------------------|

E|-----------------------|
B|-----------------------|
G|----7---7---7-7---7-9~-|
D|-/9---9---9-----9------|
A|-----------------------|
E|-----------------------|
00:00 / 00:00
Outros vídeos desta música
Repetir
Outros vídeos desta música
Compositor não encontrado.
Colaboração e revisão:
  • yVitinho16
35.164 exibições
    • ½ Tom
    • A
    • Bb
    • B
    • C
    • Db
    • D
    • Eb
    • E
    • F
    • F#
    • G
    • Ab
  • Adicionar à lista

    0 comentários

    Ver todos os comentários

    Conseguiu tocar?

    1 Tocaram 0 Ainda não

    Grave um vídeo tocando Jonny be Good e nos envie!

    Entre para oCifra Club PRO

    Tenha acesso a benefícios exclusivos no App e no Site

    • Chega de anúncios

    • Prioridade de compra em lançamentos

    • Mais recursos no app do Afinador

    • Atendimento Prioritário

    • Descontos nos produtos Cifra Club

    • Ajude a produzir mais conteúdo

    00:00 / 00:00

    Cifra Club Pro

    Aproveite o Cifra Club com benefícios exclusivos e sem anúncios
    Cifra Club Pro
    Aproveite o Cifra Club com benefícios exclusivos e sem anúncios
    OK