Cifra Club

Jonny be Good

Jimi Hendrix

Cifra: Principal
exibições 28.616
Tom: C

--------/7-7-7-7--/7-7-7-7---10p9p7-------------------------------
----7-9-/7-7-7-7--/7-7-7-7----------10p9p7------------------------
-/8----------------------------------------7h8----8-8-8-8-8-8-8-8-
-----------------------------------------------9--7-7-7-7-7-7-7-7-
--------------------------------------------------9-9-9-9-9-9-9-9-
--------------------------------------------------7-7-7-7-7-7-7-7-
                        2x(chorus riff)

---------------------||---------------------------------||
----7-9-7------------||-7-----7--7----7--7----7--7----7-||
-/8-------8\6-4------||-9(11)----9(11)---9(11)---9(11)--||
-----------------6-4-||---------------------------------||
---------------------||---------------------------------||
---------------------||---------------------------------||


riff a:

-7---------10-9-7---------------------------------------
---10-9-7---------10-9-7-7------7-----------------------
-------------------------9(11)-(11)9-7-----7(8)---------
---------------------------------------9-7------9-------
---------------------------------------------------9-9~-
--------------------------------------------------------

riff b:
  4x

||-/7-7-7-7-7----------||
||-/7-7-7-7-7-9-7(8)---||
||------------9-7(8)---||
||-------------------9-||
||---------------------||
||---------------------||


Solo:
                      slow bend     slow trill

----------------------------------------------------
-9(11)9(11)9(11)9(11)-7-----------------------------
-9(11)9(11)9(11)9(11)-9(11)~~9p7----9p7h9p7h9p7h9p7-
----------------------------------------------------
----------------------------------------------------
----------------------------------------------------

repete o "riff a" e o "riff b"


-------------------------------7-------------10------------------------
-----------------------------7---10(12)~-/12----10h12p10----10--10(12)-
-9(11)(12)(11)9-7(8)---9(11)-----------------------------11------------
---------------------9-------------------------------------------------
-----------------------------------------------------------------------
-----------------------------------------------------------------------


-------7-------------------------
-7-------10p7-------7------------
-9(11)--------9(11)---9p7---7----
--------------------------9------
------------------------------9~-
---------------------------------






wah on high treble

-12------------------------------------------------------------------
-15(17)~~-12-15(17)15p12----12~~------15-17-17(19)~~-(19)17p15----15-
-------------------------14-------/16--------------------------16----
---------------------------------------------------------------------
---------------------------------------------------------------------
---------------------------------------------------------------------


---------------------
-7-------------------
-9(11)~--(11)9p7-----
-----------------9---
-------------------9-
---------------------


3° verso

riff b


-10(12)10(12)10p7-------------------------------------------------
------------------10p7---7-------7----------------7-10p7-------7--
-----------------------9---9(11)---(11)9p7---9(11)-------9(11)----
-------------------------------------------9----------------------
------------------------------------------------------------------
------------------------------------------------------------------


--------------------------------------------
-7-----7-10p7-------------------------------
-9(11)--------9p7-----------7-9(11)9p7------
------------------9p7-----9------------9----
----------------------9-7----------------9~-
--------------------------------------------

riff b

---------------------------------------10(12)-10~--10--------10--7--------7
-7--------10(12)-10(12)-10(12)-10(12)~----------------10(12)-------10(12)--
-9(11)~9-------------------------------------------------------------------
---------------------------------------------------------------------------
---------------------------------------------------------------------------
---------------------------------------------------------------------------


-----7--------------
-------10(12)10p7---
-7h8--------------9-
--------------------
--------------------
--------------------

riff a
riff b

---------------------------------------------------------------------------
-----------------------10(12)10--10(12)~--10p7-----------------------------
-7(9)7(9)7(9)7(9)7(9)--------------------------9----7-9-----7h9(11)-9p7---7
-------------------------------------------------/9-----7h9-------------9--
---------------------------------------------------------------------------
---------------------------------------------------------------------------


-----------------------
-----------------------
----7---7---7-7---7-9~-
-/9---9---9-----9------
-----------------------
-----------------------
Acordes para:

    0 comentários

      mostrar mais comentários

      Conseguiu tocar?

      1tocaram0ainda não

      Grave um vídeo tocando Jonny be Good e mande pra gente!

      00:00 / 00:00
      outros vídeos desta música
      repetirqualidadeautomática
      Outro vídeos desta música
        00:00 / 00:00
        automática
        OK