Cifra Club

Aprenda

Like A Rolling Stone

Jimi Hendrix

Cifra: Principal (violão e guitarra)
tom: E
D#||-------------------------|-----------------------------|---------------------------|
A#||--4--------------0-------|-----------------------------|--4------------------------|
F#||--4--x-x-x-------1-----3-|--------------9-9-9-9/11-11--|--4--------11/-x-1----1----|
C#||--4--x-x-x----2--2-----4-|--------------9-9-9-9/11-11--|--4--------11/-x-2-2--2----|
G#||--2------x----2--2-----4-|-------4----x-7-7-7-7/9--9---|--2--------11/-x-2-2--2----|
D#||---------x----0--------0h|--2----2----x-0-0-0-0--------|--2/---11--x---x-0-0--0----|
                                                                                          
------------------------------|---------------------0-0-0-0-|-----2-2-2-------2---2-2-2-2-2---|
------------------------------|------4-4/2-------0--0-0-0-0-|-----2-2-2-2-2-2-2---2-2-2-2-2-x-|
-------3------------------4-x-|--4---4-4/2-2-----1--1-1-1-1-|-----3-3-3-3-3-3-3h4-4-4-4-4-4-x-|
--4----4------------------4-x-|--4---4-4/2-2-----2--2-2-2-2-|-----4-4-4-4-4-4-----------------|
--4----4--------2---2-4/6-----|--2------------2--2--2---2---|--4------------------------------|
--2----2----2-4---4-----------|---------------0--0--0-------|--2------------------------------|
                                                                                                  
------7-------------0-0-0-0--0--0-|--------------------------------|--7/-5-----------------------|
----7---7-----------0-0-0-0--0--0-|--9/-11--x--2-2-2-2-2-2-2-2-2-x-|--7/-5-----------------------|
--6b------6r-4----------9-9--9----|--9/-11--x--3-3-3-3-3-3-3-3-3-x-|--8/-6--x-x----------4---4---|
---------------6--------9-9--9----|--9/-11--x--4-4-4-4-4-4-4-4-4-x-|--9/-7--x-x------6-6-4h6-6---|
------------------------9h11-11---|--7/-9---x--4-4-4-4-4-4-4-4-4-x-|--9/-7--x-x------7-7-7-------|
-----------------0------0-0--0----|------------2-------------------|--7/-5--x-x---0------------0-|
                                                                                 
---------------------------|--------------------------|----------------------------------|
---------------------------|--------------------------|----------------------------------|
---------------------------|------4--4/2--------1-----|------------------------4/2-2/1-x-|
----------4-----4----------|------4--4/2------2----2--|-------4--------------4-4/2-2---x-|
-------4-----4-----4--x--6-|------6--6/4--------------|-----4---4------2h4/6-------------|
--2----------------------4h|--7-----------0-----------|--2---------2-4-------------------|
                                                                               
----------------------------|-----------------------------|------4---------------------|
----------------------------|----------------2------2-----|--7-7-4---------------0-----|
---------4/2-2-------1------|------3------3-----3-----3---|--6b----6r-2-------1--x-1---|
--4------4/2-2-------2------|------4------4-------4-----4-|-------------4-----2--x-2---|
--2----2--------------------|--4--------------------------|----------------2--2--x-2---|
---------------0--0-----0h2-|--2------2-2-----------------|----------------0--0--0-0---|
                                                                             
---------------------------|---------------------------|------------------------------|
---------------------------|---------------------------|------------------------------|
--------3------------------|----------------1-1----1---|--------------------3h4--3----|
--------4--4---------------|----------4-----2-2--x-2---|--------4---------------------|
--4--4---------------------|--2----2--2-----2-2--------|-----4-----4-----4------------|
--2-----------2--2--2--2h4-|-------------0-----------0h|--2-----------2------------4--|
                                                                                  
------------------------|-------------------------------|--------x-------------------------|
-------4------0-----0---|----------2-2---2--------------|--4-----9/--0----------------7/9--|
-------4------1-----1---|------3-3-3-3-3----3-----------|--4-----9/--0-9----9---9-9---9/11-|
-------4------2-----2---|------4-4-4----------4---------|--4-----9/--0-9----9---9-9---9/11-|
--2----2------2-----2---|------4-4----------------------|--4h6---x-----9h11-11----11--7/9--|
------------0-----0-----|--0h2-------------------0h2-4--|--------------0-------------------|
                                                                      
--------------------------------------|---------9-----9----9------9-----|
--11-----11-11----11-11-----11-11-x-x-|------9-----9--9h11-9-9h11-------|
--11-----11-11----11-11-----11-11-x-x-|--11-------------------------11--|
--11-----11-11----11-11-----11-11-x-x-|--11-----------------------------|
--9---9--9--9-----9--9---9--9--9--x-x-|---------------------------------|
--------------------------------------|---------------------------------|
                                                                                         
---------9--------9----9----9--------|---------------------------|-------------------------|
------9-----9-----9h11-9h11-9--------|-----------------5h7p5-----|-------------------0-2/4-|
--11--------11-11-------------11/----|-----------------------4---|---------------4-----1/3-|
-------------------------------------|--------------6------------|---------------4h6-------|
-------------------------------------|--2--------4-------------4h|--6----------------------|
---------------------------------2h4-|---------------------------|-----------0-------------|
                                                                                                
------------------------------|------------------4p2-------------|-----------------------------|
--2---------------------------|------------------2---2-4-2-------|-------------------5h7p5-----|
--3---------------------------|--3h4-4-4-4-4-3---3---------3-----|-----------------------------|
--4--4-4---4----4-------------|--4---4-4-4-4-4-4-----------------|-------4--------6------------|
---------------------4--------|----------------------------------|--2-------2--4-----------4-5-|
---------2----2----2----2-2-2-|------------------------------2h4-|-----------------------------|
                                                                                        
---------------------------|----------------------------|-------------------------------|
---------------------------|----------------------------|--2-------------2---2---2------|
---------------------------|-------3-----------3------3-|--3h4-3---------1h3-1h3-1------|
-------8--------2----------|-----4-4---4-----4-4--4-----|--------4-----------------4----|
--6-------6------------2h4-|----------------------------|-----------4----------------4--|
-------------0-----2h4-----|--2-----------2---------2---|-------------2-----------------|
                                                                                         
-----------------------------|-----------------------------|----------------------------|
-----------------------------|-----------------------------|----------------------------|
-------------------4---------|-----------------------------|---------1------------1-----|
------2-2----------4h6-6-2h4-|--------4--------------------|---------2------------2-----|
--------2--2-----------------|-----4-----4--4--------2-4p2-|-----2-2-2--2-----2-2-2--2--|
--0-----0-----0--0-----------|--2-----------2--2-2h4-------|--0------0-----0------0-----|
                                                                                         
-----------------------------|---------------------------|------------------------------|
-----------------------------|------------------4--------|------------------------------|
--------------3h4p3h4p3------|------1-------------4------|--6--6-6-6--x-x------------3--|
--------4-----4---------4----|------2---------4-----4----|--6--6-6-6--x-x-----4-4-4--4--|
-----4--4--4--------------4--|------2------6-------------|--4--4-4-4--x-x-----6-6-6-----|
--2-----2--------------------|--0-------0-------------2--|----------------4h7-7-7-7-----|
                                                                                     
---------------------------|------------------------------|--------------------------|
-------0----------4--------|------------------------------|--6-----------------6-----|
-------1------------4------|--6--6-6-6--x-x------------3--|--6-----6-----6-----6--0--|
-------2--------4-----4----|--6--6-6-6--x-x-----4-4-4--4--|--6--6--6--6--6--6--6--0--|
-------2-----6-------------|--4--4-4-4--x-x-----6-6-6-----|--4--4--4--4--4--4--4--0--|
--0----0--0-------------2--|----------------4h7-7-7-7-----|--------------------------|
                                                                    
-----------------------------------|------------2-2-2--2-2-2-2-2-2-|
--0-----0------9-------------------|------------2-2-2--2-2-2-2-2-2-|
--1-----1------9----9--9--9---9/11-|--11--x--3--3-3-3--3-3-3-3-3-3-|
--2-----2------9----9--9--9---9/11-|--11--x--4--4-4-4--4-4-4-4-4-4-|
--2-----2------9h11-11-11-11--7/9--|--9---x--4--4-4-4--4-4-4-4-4-4-|
--0--0--0--0-0-0----0--0--0--------|---------2--2-2-2--2-2-2-2-2-2-|
                                                                 
--2-2-2-2-2-2-2-2-2-2-2-2-2-2-2-2-|----------------0--0-0-0--0--|
--2-2-2-2-2-2-2-2-2-2-2-2-2-2-2-2-|--4--4-4-4/2-2--0--0-0-0--0--|
--3-3-3-3-3-3-3-3-3-3-3-3-3-3-3-3-|--4--4-4-4/2-2--1--1-1-1--1--|
--4-4-4-4-4-4-4-4-4-4-4-4-4-4-4-4-|--4--4-4-4/2-2--2--2-2-2--2--|
--4-4-4-4-4-4-4-4-4-4-4-4-4-4-4-4-|--2--2-2-2/0-0--2--2-2-2--2--|
--2-2-2-2-2-2-2-2-2-2-2-2-2-2-2-2-|----------------0--0-0-0--0--|
                                                                                    
---------------------------------------------|-------------------------------------|
--11--11-11-11--11-11-9/11-11-11-11-11-11-11-|--4--4-4-4/2-2--9----9--9--9--x------|
--11--11-11-11--11-11-9/11-11-11-11-11-11-11-|--4--4-4-4/2-2--9----9--9--9--x------|
--11--11-11-11--11-11-9/11-11-11-11-11-11-11-|--4--4-4-4/2-2--9----9--9--9--x------|
--9---9--9--9---9--9--7/9--9--9--9--9--9--9--|--2--2-2-2/0-0--9h11-11-11-11-x-9h11-|
---------------------------------------------|----------------0-0--0--0--0---------|
                                                                       
--------------------2-2-2-2-2-2-2-2/|--7-7-7-7-7-7-7-7-7-7-7-7-7-7-7-7-|
--------------------2-2-2-2-2-2-2-2/|--7-7-7-7-7-7-7-7-7-7-7-7-7-7-7-7-|
--11--11-11-11--x-x-3-3-3-3-3-3-3-3/|--8-8-8-8-8-8-8-8-8h9-9-9-9-9-9-9-|
--11--11-11-11--x-x-4-4-4-4-4-4-4-4/|--9-9-9-9-9-9-9-9-9-9-9-9-9-9-9-9-|
--9---9--9--9---x-x-4-4-4-4-4-4-4-4-|----------------------------------|
--------------------2-2-2-2-2-2-2-2/|--7-7-7-7-7-7-7-7-----------------|
                                                                                 
--7/9--9--9--9---9---9----9----9----x-x-|---------------------------------------|
--7/9--9--9--9---9---9h11-9h11-9----x-x-|--4--4-4-4/2-2--9----9--9--9--9--9--9--|
--9/11-11-11-11--11--------------11-----|--4--4-4-4/2-2--9----9--9--9--9--9--9--|
--9/11-11-11-11--11---------------------|--4--4-4-4/2-2--9----9--9--9--9--9--9--|
----------------------------------------|--2--2-2-2/0-0--9h11-11-11-11-11-11-11-|
----------------------------------------|----------------0----0--0--0--0--0--0--|
                                                                 
--2--2-2-2-2-2-2-2-2-2-2-2-2-2-2-|----------------0--0-0-0-0-0-0-|
--2--2-2-2-2-2-2-2-2-2-2-2-2-2-2-|--4--4-4-4-2-2--0--0-0-0-0-0-0-|
--3--3-3-3-3-3-3-3-3-3-3-3-3-3-3-|--4--4-4-4-2-2--1--1-1-1-1-1-1-|
--4--4-4-4-4-4-4-4-4-4-4-4-4-4-4-|--4--4-4-4-2-2--2--2-2-2-2-2-2-|
--4--4-4-4-4-4-4-4-4-4-4-4-4-4-4-|--2--2-2-2-0-0--2--2-2-2-2-2-2-|
--2--2-2-2-2-2-2-2-2-2-2-2-2-2-2-|----------------0--0-0-0-0-0-0-|
                                                                 
--2-2-2-2-2-2-2-2-2-2-2-2-2-2-x-x-|------------------------------|
--2-2-2-2-2-2-2-2-2-2-2-2-2-2-x-x-|--4--4-4-4--4--9--9-9-9--9/11-|
--3-3-3-3-3-3-3-3-3-3-3-3-3-3-x-x-|--4--4-4-4--4--9--9-9-9--9/11-|
--4-4-4-4-4-4-4-4-4-4-4-4-4-4-x-x-|--4--4-4-4--4--9--9-9-9--9/11-|
--4-4-4-4-4-4-4-4-4-4-4-4-4-4-x-x-|--2--2-2-2--2--7--7-7-7--7/9--|
--2-2-2-2-2-2-2-2-2-2-2-2-2-2-x-x-|--2--2-2-2--2--0--0-0-0-------|
                                                                                 
----------------------------------------------|---------9------9----9------9--9---|
--11--11-11-11-11-11-11-11-11-11-11-11-11-x-x-|------9---------9h11-9-9h11-11-11--|
--11--11-11-11-11-11-11-11-11-11-11-11-11-x-x-|--11--------11---------------------|
--11--11-11-11-11-11-11-11-11-11-11-11-11-x-x-|--11-------------------------------|
--9---9--9--9--9--9--9--9--9--9--9--9--9--x-x-|-----------------------------------|
----------------------------------------------|-----------------------------------|
                                                                                            
--9----9----9----9----9--------------|---------------------------|-------------------------|
--9h11-9h11-9h11-9----9--------------|-----------------5h7p5-----|-------------------0-2/4-|
-------------------11----11----------|-----------------------4---|---------------4-----1/3-|
-------------------------------------|--------------6------------|---------------4h6-------|
---------------------------------2---|--2--------4-------------4h|--6----------------------|
-----------------------------2h4---4-|---------------------------|-----------0-------------|
                                                                                               
------------------------------|----------------------------------|-----------------------------|
--2---------------------------|----7---5---4---------------------|-------------------5h7p5-----|
--3---------------------------|----------------6---4---4-3-x-----|-----------------------------|
--4--4-4---4----4-------------|--8---6---4-----------------------|-------4--------6------------|
---------------------4--------|--------------7---6---6---4---2h4-|--2-------2--4-----------4-5-|
---------2----2----2----2-2-2-|----------------------------------|-----------------------------|
                                                        
---------------------------|----------------------------|
---------------------------|----------------------------|
---------------------------|-------3-----------3------3-|
-------8--------2----------|-----4-4---4-----4-4--4-----|
--6-------6------------2h4-|----------------------------|
-------------0-----2h4-----|--2-----------2---------2---|
                                                                           
---------------------------------------------|-----------------------------|
-------------------------------------11-11-x-|-----------------------------|
--13/11-11-11-11/9-9-9-9/11-11-11-11-11-11-x-|-------------------4---------|
----------------------------------11-11-11-x-|------2-2----------4h6-6-2h4-|
--11/9--9--9--9/-7-7-7-7/9--9--9--9--9--9--x-|--------2--2-----------------|
---------------------------------------------|--0-----0-----0--0-----------|
                                                                                              
--------------------------------|----------------------------|------------------------4-------|
--------7---------------4-2-----|----------------------------|--------2-------------7---------|
--------6-x-3-3-3h4-4-3-3---4-3-|---------1------------1-----|--------3--x-x-----6b-----6p4---|
--4--4--4-x-4-4-4-4-4-4-4-----4-|---------2------------2-----|--------4--x-x-6-4------------6-|
--------------------------------|-----2-2-2--2-----2-2-2--2--|--------4--x-x------------------|
--------------------------------|--0------0-----0------0-----|--2--2--2--x-x------------------|
                                                                                       
---------------------------|------------------------------|---------------------------|
------------------4--------|------------------------------|-------0----------4--------|
------1-------------4------|--6--6-6-6--x-x------------3--|-------1------------4------|
------2---------4-----4----|--6--6-6-6--x-x-----4-4-4--4--|-------2--------4-----4----|
------2------6-------------|--4--4-4-4--x-x-----6-6-6-----|-------2-----6-------------|
--0-------0-------------2--|----------------4h7-7-7-7-----|--0----0--0-------------2--|
                                                                                            
------------------------------|--------------------------|-----------------------------------|
------------------------------|--6-----------------6-----|--0-----0------9-------------------|
--6--6-6-6--x-x------------3--|--6-----6-----6-----6--0--|--1-----1------9----9--9--9---9/11-|
--6--6-6-6--x-x-----4-4-4--4--|--6--6--6--6--6--6--6--0--|--2-----2------9----9--9--9---9/11-|
--4--4-4-4--x-x-----6-6-6-----|--4--4--4--4--4--4--4--0--|--2-----2------9h11-11-11-11--7/9--|
----------------4h7-7-7-7-----|--------------------------|--0--0--0--0-0-0----0--0--0--------|
                                                                                               
------------2-2-2--2-2-2-2-2-2-|--2-2-2-2-2-2-2-2-2-2-2-2-2-2-2-2-|----------------0--0-0-0--0--|
------------2-2-2--2-2-2-2-2-2-|--2-2-2-2-2-2-2-2-2-2-2-2-2-2-2-2-|--4--4-4-4/2-2--0--0-0-0--0--|
--11--x--3--3-3-3--3-3-3-3-3-3-|--3-3-3-3-3-3-3-3-3-3-3-3-3-3-3-3-|--4--4-4-4/2-2--1--1-1-1--1--|
--11--x--4--4-4-4--4-4-4-4-4-4-|--4-4-4-4-4-4-4-4-4-4-4-4-4-4-4-4-|--4--4-4-4/2-2--2--2-2-2--2--|
--9---x--4--4-4-4--4-4-4-4-4-4-|--4-4-4-4-4-4-4-4-4-4-4-4-4-4-4-4-|--2--2-2-2/0-0--2--2-2-2--2--|
---------2--2-2-2--2-2-2-2-2-2-|--2-2-2-2-2-2-2-2-2-2-2-2-2-2-2-2-|----------------0--0-0-0--0--|
                                                                                   
---------------------------------------------|-------------------------------------|
--11--11-11-11--11-11-9/11-11-11-11-11-11-11-|--4--4-4-4/2-2--9----9--9--9--x------|
--11--11-11-11--11-11-9/11-11-11-11-11-11-11-|--4--4-4-4/2-2--9----9--9--9--x------|
--11--11-11-11--11-11-9/11-11-11-11-11-11-11-|--4--4-4-4/2-2--9----9--9--9--x------|
--9---9--9--9---9--9--7/9--9--9--9--9--9--9--|--2--2-2-2/0-0--9h11-11-11-11-x-9h11-|
---------------------------------------------|----------------0-0--0--0--0---------|
                                                                        
--------------------2-2-2-2-2-2-2-2/|--7-7-7-7-7-7-7-7-7-7-7-7-7-7-7-7-|
--------------------2-2-2-2-2-2-2-2/|--7-7-7-7-7-7-7-7-7-7-7-7-7-7-7-7-|
--11--11-11-11--x-x-3-3-3-3-3-3-3-3/|--8-8-8-8-8-8-8-8-8h9-9-9-9-9-9-9-|
--11--11-11-11--x-x-4-4-4-4-4-4-4-4/|--9-9-9-9-9-9-9-9-9-9-9-9-9-9-9-9-|
--9---9--9--9---x-x-4-4-4-4-4-4-4-4-|----------------------------------|
--------------------2-2-2-2-2-2-2-2/|--7-7-7-7-7-7-7-7-----------------|
                                                                           
--7/9--9--9--9---9---9----9----9----x-x-|------4---------------------------|
--7/9--9--9--9---9---9h11-9h11-9----x-x-|--7-7-----------------------------|
--9/11-11-11-11--11--------------11-----|--6b----6r-4----------------------|
--9/11-11-11-11--11---------------------|-------------6-4------------------|
----------------------------------------|-----------------------9h11p9-7h9-|
----------------------------------------|-----------------0--0-------------|
                                                                                                    
--2--2-2-2-2-2-2-2-2-2-2-2-2-2-2-|-----------7------------------|--2-2-2-2-2-2-2-2-2-2-2-2-2-2-x-x-|
--2--2-2-2-2-2-2-2-2-2-2-2-2-2-2-|-----------7------------------|--2-2-2-2-2-2-2-2-2-2-2-2-2-2-x-x-|
--3--3-3-3-3-3-3-3-3-3-3-3-3-3-3-|------4-6b---6r4--------------|--3-3-3-3-3-3-3-3-3-3-3-3-3-3-x-x-|
--4--4-4-4-4-4-4-4-4-4-4-4-4-4-4-|--4-6-----------------4-6-2-4-|--4-4-4-4-4-4-4-4-4-4-4-4-4-4-x-x-|
--4--4-4-4-4-4-4-4-4-4-4-4-4-4-4-|------------------------------|--4-4-4-4-4-4-4-4-4-4-4-4-4-4-x-x-|
--2--2-2-2-2-2-2-2-2-2-2-2-2-2-2-|-----------------0------------|--2-2-2-2-2-2-2-2-2-2-2-2-2-2-x-x-|
                                                                             
------------------------------|----------------------------------------------|
--4--4-4-4--4--9--9-9-9--9/11-|--11--11-11-11-11-11-11-11-11-11-11-11-11-x-x-|
--4--4-4-4--4--9--9-9-9--9/11-|--11--11-11-11-11-11-11-11-11-11-11-11-11-x-x-|
--4--4-4-4--4--9--9-9-9--9/11-|--11--11-11-11-11-11-11-11-11-11-11-11-11-x-x-|
--2--2-2-2--2--7--7-7-7--7/9--|--9---9--9--9--9--9--9--9--9--9--9--9--9--x-x-|
--2--2-2-2--2--0--0-0-0-------|----------------------------------------------|
                                                                                  
-------------14/-10---------14-14-14-14-14-|--------17-17-17---------------------|
--x-------14-14/-10-14--14--14-14-14-14-14-|--17~------------17b17b17b17r-15b----|
--x-15h16-----------16b-16b----------------|-------------------------------------|
--x----------------------------------------|----------------------------------x--|
--x----------------------------------------|----------------------------------x--|
-------------------------------------------|----------------------------------x--|
                                       
-------------------|------------------||
-------------------|------------------||
--8----------------|------------------||
--9----------------|------------------||
--9----------------|------------------||
--7----------------|------------------||
Composição de Bob Dylan
Colaboração e revisão:
  • peterson gusmão
12.027 exibições
    • ½ Tom
    • A
    • Bb
    • B
    • C
    • Db
    • D
    • Eb
    • E
    • F
    • F#
    • G
    • Ab
  • Adicionar à lista

    0 comentários

    Ver todos os comentários

    Conseguiu tocar?

    0 Tocaram 0 Ainda não

    Grave um vídeo tocando Like A Rolling Stone e nos envie!

    00:00 / 00:00
    outros vídeos desta música
    repetir qualidade Automático
    Outros vídeos desta música
    00:00 / 00:00
    Automático

    Cifra Club Pro

    Aproveite o Cifra Club com benefícios exclusivos e sem anúncios
    Cifra Club Pro
    Aproveite o Cifra Club com benefícios exclusivos e sem anúncios
    OK