Cifra Club

Little Wing

Jimi Hendrix

Cifra: Principal
exibições 142.418
Tom: C
E|---12-------------------------------3-5-3-----------------------------|
B|---12----------------------5--------3-3-3-------3--3------------------|
G|x--12---------------0-----5-5------0-----------4-5--5-4-5--4-----------|
D|x--------x-x------- 5---5-7--------------5----------------5---------|
A|x--12----x-x-0-2---5-7------------------------------------------5--7|
E|-------0-x-x------------------23-----------------------------5-------|

E|------------------------------------------------------------------9-10-|
B|----------5-5-------------------8-10-8----------------------------7-10-|
G|--5-----5-7-5-7-----------------7------7--------7-7-7----7-----------7-|
D|--5-----------7--5-7--5------------------9---7--7-9-7-7--7-----9-------|
A|-----7-----------5-7--5------------------7-7-10-------10-7-------------|
E|------------------------5-7-0-----------------------------7-----------|

E|-9--------7--------------------------------------------------------5/7-|
B|-7--7-10--7--------------------------------------------------------3/5-|
G|-7----------7------6---------5--5-5--5--------5-5--5------------0--0---|
D|------------9------87------5-7--9-7--5--5--5--5-7--5------------5--5/7-|
A|------------------x---------------------8--7---------------------------|
E|--------------7-6-------5------------------------------57--2/3---------|

E|-5--53------------------------------------------------------------------|
B|-3--51--1---1---1--------1-----1--31----------------------7-------------|
G|-0--0----0---0---0--------0---0----2-------------------7--7-----7--7----|
D|----53----3-3-3-3--3-----------------------7----7------7--9-----7--7--7-|
A|----------------------0-3---3----------3/5--5-5--5--5-----------------10|
E|------------------------------------------------------------------------|
                
                    
E|--------|--Drums--|
B|--------|---------|
G|----7---|---------|
D|--7-7---|---------|
A|--7-----|---------|
E|--------|---------|


                         H P                  H    H
E|--12-------------------------------------------------------------------|
B|--12-------------------------------------------------------------------|
G|--12-----------------0-2-0--------------------------------------------7|
D|---------------------2-------2-------------------------------5--7--5--7|
A|---------------------2--------------------5-7--------------------------|
E|-------0-----------------------0-0-0-0---------5-7--3------------------|
    Well she's walkin                       through the clouds



                                                                  H   P
E|------------------------------------------------------------------------|
B|-------------------------------------------------------------8--10--8--8|
G|--7--7--7----------------------------------------------------7----------|
D|--9--7--7-----------------------9--7--7------7---7----------------------|
A|--------10----------------------7--7--10--7--10--7----------------------|
E|------------7---------------------------------------0-------------------|
              with a circus mind           that's running round



E|------------------------7--9--7----------------------------------------|
B|----8-------------------7--------10--7--7----H-p-------------H--P------|
G|------7---------------------------------7--7-9-7----------7--9--7------|
D|--------9----------------------------------------9--8--8--8--------7---|
A|-----------------------------------------------------------------------|
E|------------7----------------------------------------------------------|
              butterflies and zebras           and moonbeams


                                                   P Tab
E|------------------------------------3----3-3---------------------------|
B|----------------------------------1-0----3-3---------------------------|
G|5--5--5-----------------------------0-0--------5-4---------------------|
D|9--7--5-----5-5-5-5-5-5---------------------------5-------------------|
A|------------8-7-8-7-8-8-----------------------------------------------|
E|-------------------------3---------------------------3-----------------|
              and, uh fairy tales       that's all she ever think's about



E|---------------------------------------------|
B|---------------------------------------------|
G|-----------------------------------------7---|
D|---------(10)----------------------------7---|
A|---------------------12---9------------------|
E|------/8------/10---(10)-(10)-10--10-10------|
          riding with the wind


                  H P       H  P
E|--------------0--------0-----------------------------------------------|
B|--------------0-2-0----12-14-12--------0-------------------------------|
G|--------------------------------14-12--9-------------------------------|
D|----------2-------------------------------12-9-------------------------|
A|----------2------------------------------------------------------------|
E|---/12---0--------------------------------------------------------3---|
  When I'm sad                                          She comes to me


   .   .   .   .
E|-----------------------------------------------------------------------|
B|-----------------------------------------------------------------------|
G|-7/97/97/97---------------------------------------------------------|
D|-7/97/97/97---------------------------------------------------------|
A|-------------------------------------------------------5--7--5---------|
E|------------------12--5-----------------------5-5--7-----------3--5--0|
                         With a thousand smiles            She gives to me



                 H   P                     H
E|-------------------------------------------------------------------9--10|
B|------------8--10--8-----------------------------------------------7--10|
G|------------7------------------------------------------------------7--7-|
D|------------------------------------------------------------------------|
A|---------------------------------12--12--14--14-------------------------|
E|----------------------12--12--0-------------------7---------------------|
    free                                               It's alright, she


                                H  P
E|---9--7------------------------------------------------------------------|
B|---7--7--------------------5--7--5--5------------------------------------|
G|---7--7--------------------4---------------------------------------------|
D|------------9---------9--------------------7--9--7--7-------5-5-5-5-5-5-8|
A|--------------9----9-----------------------7--7--7--10------7-8-7-8-7-8-7|
E|----------------7--------------------------------------------------------|
  says it's alright                                           Take anything



E|--------------------5/7--53--3---------------------------------------|
B|--------------------3/5--51--1---------------------------------------|
G|------------2/4-----0----0----0---------------------------------------|
D|--------------------5/7--53--3------------------------------12-12-12-|
A|---------------------------------------------10--10----------12-12-12-|
E|-------3---------3----------------------3/8----------8--/10--10-10-10-|
   you want from me          anything                    anything

                            Whammy Bar
E|---------------------------12------------|
B|---------------------------12------------|
G|---------------------------12------------|
D|12-12--12--12-12--12-12-------------------|
A|12-12--12--12-12--12-10-------------------|
E|10-10--10--10-10--10-10-------------------|

  Solo
E|------------------------------------------------------------------------|
B|-----15b(17)--15b(17)--15--12--12--15--12-----b(17)15------------------|
G|--------------------------------------------------------12-------14b(16)|
D|------------------------------------------------------------------------|
A|------------------------------------------------------------------------|
E|13---------------------------------------------------------------------|
                                                Fly  on little wing

E|--------------------------------------------------------------------|
B|---14---------------------------------------------------------------|
G|-b(16)--14b(16)-14---14b(16)14--12--14--14b(16)14b(16)---b(16)14-|
D|--------------------------------------------------------------------|
A|--------------------------------------------------------------------|
E|--------------------------------------------------------------------|

  P
E|-----------------------------------------------------------------------|
B|-------------------------------------------------10/12-----------------|
G|12------12-14b(16)-12-14-----12-14-12/14--12/14--------10/12--14b(16)--|
D|---14---------------------14-------------------------------------------|
A|-----------------------------------------------------------------------|
E|-----------------------------------------------------------------------|

    H  P
E|--------------------------------------------------------15--15----------|
B|12-13-12-13-12-13-12-----15b(17)--b(17)15--12----------15--15----------|
G|---------------------12-------------------------14b(16)---------14b(16)-|
D|------------------------------------------------------------------------|
A|------------------------------------------------------------------------|
E|------------------------------------------------------------------------|

                                    H  P            H  P
E|-15------13----------13------------------------------------------------|
B|-15----------13------13----13------------------------------------------|
G|-----12----------12----------------------------------------------------|
D|-------------------------------12-14-12--------12-14-12----------------|
A|-------------------------------12--------15----12--------15--15/17-----|
E|-----------------------------------------------------------------------|
                                                             
          H  P                          Whammy bar
E|----------------------------------------12-----------------12-----------|
B|----------------------------------------12---------15b(17)------15b(17)-|
G|----------------------------------------12------------------------------|
D|12--14--16--14--12--14--14--12--12--------------------------------------|
A|12--12--12--12--12--12--12--12--12--------------------------------------|
E|------------------------------------------------------------------------|
  (with reverb or wah wah or something)                             Yeah, 

E|------------------------------15---15----------15----------15----------|
B|15----------------------------15---15----------15----------15----------|
G|----14b(16)--14--12---14b(16)----------14b(16)-----14b(16)-----14b(16)-|
D|-----------------------------------------------------------------------|
A|-----------------------------------------------------------------------|
E|-----------------------------------------------------------------------|
  yeah, yeah, yeah          ... little wing wing

E|15-------------------------------------------------------|
B|15-------------------------------------------------------|
G|----b(16)14--12--14------12--14--14b(16)--12--14--12-----|
D|----------------------14-------------------------------14|
A|---------------------------------------------------------|
E|---------------------------------------------------------|
Acordes para:

    0 comentários

      mostrar mais comentários

      Conseguiu tocar?

      18tocaram4ainda não

      Grave um vídeo tocando Little Wing e mande pra gente!

      00:00 / 00:00
      outros vídeos desta música
      repetirqualidadeautomática
      Outro vídeos desta música
        00:00 / 00:00
        automática
        OK