Cifra Club

Little Wing

Jimi Hendrix

Cifra: Versão 3 (violão e guitarra)
tom: C
(intro)
       Sl. Down                       Sl. Down
E |-*-12-\\\----|----*-*---------------------|------3h5p3-3---3------------|
B |-*-12-\\\----|----*-*---------------------|------3---------3---3-3------|
G |-*-12-\\\----|----*-*------0-----5-5---\\\|----0-0---------4h5-5-4-5-4--|
D |-*-----------|-*--*-*--------5---5-5h7-\\\|--------------5-------------5|
A |-------------|-*--*-*--0h2---5h7----------|-----------------------------|
E |-------------|-0--------------------------|2/3--------------------------|

                           Sl. Down
E |--------------------------------|--------------------------------|
B |-----------5--------------------|---8h10p8-----------------------|
G |-------5---5h7------------------|---7------7----------7---7------|
D |---------------5h7-5---5--------|-------------------7-7h9-7----7-|
A |---5h7---7---------5h7----------|------------7-7-10---------10-7-|
E |-5-----------------------5h7-\\\|-0------------------------------|

                                                          Sl. Down
E |----9---10-9-7---7----------|---5---------------------------|
B |----7---7--7-10--7-7------6-|---5---------------------------|
G |----7---7--7-7-----7------7-|---5--5-5-5------5---5---------|
D |----9---9--9-9-----9----8---|---7--9-7-5--5-5-5h7-5---------|
A |----------------------------|-------------8-7---------------|
E |-7---------------------6----|-5---------------------5h7-\\\-|

E |-----5/7/5---5/3--3---3-3-3-3|------------------------------|
B |-----3/5/3---3/1--1---1-1-1-1|---------1-1h3p1-------7-7-7-7|
G |-----0-------*----*---*-*-*-*|-----0h2---------------7-7-7-7|
D |-----5/7/5---5/3--3---3-3-3-3|-0h2-------------///5--5-5-5-5|
A |-----------------------------|-0h3--------------------------|
E |-2/3-------3------1---1-1-1-1|------------------------------|

                    Sl. Down
E |-----------------------||----------------------|
B |-----------------------||----------------------|
G |-7----7-7-7------------||------Bateria (Drums)-|
D |-7h9--7-7-7---7----\\\-||----------------------|
A |----------10--7h9--\\\-||----------------------|
E |-----------------------||----------------------|

            Em                   G
Well, she's walking through the clouds
       Am
with a circus mind
               Em
that's running round.

Bm                          A#       Am
Butterflies and zebras and moonbeams
     C     G
and fairy tales,
                    F
That's all she ever thinks about ...

C               D
Riding with the wind.

Em                         G
When I'm sad, she comes to me
       Am
with a thousand smiles.
                Em
She gives to me free.

Bm
It's alright, she said,
A#            Am
it's alright.

C                 G             F
Take anything you want from me,
C         D
Anything, anything.


(solo)
 Em, G, Am, Em, Bm A#, Am, C, G, F, C, D – 2x

Fly on, little wing
Yeah, yeah, yeah, little wing...

ESTROFES E TABLATURAS

           Em                             G
     Sl. Down
E |-*-12-\\\-|-------------------------------------|-------------------|
B |-*-12-\\\-|-------------------------------------|-----3---3---3---3-|
G |-*-12-\\\-|-------------------------------------|-----2---2h4-2---2-|
D |-*--------|---0h2p0h2p0h2p0h2---2---2-----------|-------5-------5---|
A |----------|----------------------------5h7-5----|-------------------|
E |----------|-0-----------------0---2----------7/5|-3-----------------|

    Am              Em             Bm                  A#
E |---5---------------|-----------------|----9--10-9-7--7----------------|
B |---5---------------|---8h10p8--------|----7--7--7-10-7-7---------6----|
G |---5--5-5-5-----5--|---7------7---8--|----7--7--7-7----7h9p7-----7h9p7|
D |---7--9-7-5-5---5h7|---------------7-|----9--9--9-9----9-------8------|
A |------------5h7----|-------------7--7|--------------------------------|
E |-5-----------------|-0---------------|-7---------------------6--------|

    Am            C          G         F        C
E |---5--------------------------|------------3-3---3-3|-----0--0-0-0-0--|
B |---5--------------------------|---3--------1-1---1-1|-----1--1-1-1-1--|
G |---5--5-5-5-------------------|---4h5p4-4--*-*---*-*|-----0--0-0-0-0--|
D |---7--9-7-5-5-5--5-5-5-5-5-5-5|---5-----5--3-3---3-3|-0h2-2--2-2-2-2--|
A |------------8-7--8-7-8-7-8-7-8|---------------------|-0h3-3--3-3-3-3--|
E |-5----------------------------|-3----------1-1------|-----------------|

    D
E |---------------------||
B |---------------------||
G |-------7--7-7-7-7-7--||
D |-------7--7-7-7-7-7--||
A|///-5--5--5-5-5-5-5--||
E |---------------------||

       Em                         G
 Sl. Down                        Sl. Down
E |-----|-----0-----0--------------------|----------------------|
B |-----|-----12h14-12-0--0--------------|----3/5/3/5/3/5/3--3-3|
G |-----|--------------14-12-0--0--------|----2/4/2/4/2/4/2--2-2|
D |-----|--------------------14-12-------|----------------------|
A |-----|--------------------------14///-|----------------------|
E |-///-|-0------------------------------|-3--------------------|

  Am                 Em               Bm          A#
                Sl. Down
E |---5------------------|--------------------|-----7-9-7----------|
B |---5------------------|---8h10p8-----------|-----7-7-7-7------6-|
G |---5------------------|---7------7--------7|-----7-7---7------7-|
D |---7------------------|---------------7h9--|-----9-9---9----8---|
A |----------5h7-5-------|--------------------|--------------------|
E |-5----5h7-------5h7///|-0------------------|-7------------6-----|

  Am            C             G          F
                           Sl. Down
E |-5-------------------------------|----7-5/3-3--3-3-3-3-|
B |-5h7p5-----5---------------------|----5-3/1-1--1-1-1-1-|
G |-------7---5---------------------|----*-*-*-*--*-*-*-*-|
D |---------7---7-5-5---5-5-5-5-----|----7-5/3-3--3-3-3-3-|
A |-----------------5h7-7-8-7-5h7///|---------------------|
E |---------------------------------|-3--------1--1-1-1-1-|

    C             D                Em
E |-----0--0-0-0-0-|--------------------|--(12)--||
B |-----1--1-1-1-1-|--------------------|--(12)--||
G |-----0--0-0-0-0-|-------7--7-7-7-7-7-|--(12)--||
D |-0h2-2--2-2-2-2-|-------7--7-7-7-7-7-|--------||
A |-0h3-3--3-3-3-3-|///-5--5--5-5-5-5-5-|--------||
E |----------------|--------------------|--------||

(solo)

    Em                   G
E |-------------------------|-------------------------|
B |-15b17--15b17r15-12-12h15|-12—15b17r15-----------15|
G |-------------------------|-------------12--14b16---|
D |-------------------------|-------------------------|
A |-------------------------|-------------------------|
E |-------------------------|------------------------|

    Am
E |-------------------------------------------------|
B |-------------------------------------------------|
G |-14b16-14--14b16-14-12-14b16r14b16r14-14b16-14-12|
D |-------------------------------------------------|
A |-------------------------------------------------|
E |-------------------------------------------------|

    Em                           Bm               A#
E |----------------------------------|-----------------------------|
B |----------------------------------|-----------------------------|
G |-----12-14b16-12-14----12-14—12/14|-12/14-14/16-16/12--14b16-r14|
D |-14-----------------14------------|-----------------------------|
A |----------------------------------|-----------------------------|
E |----------------------------------|-----------------------------|

    Am                    C
E |-------------------------------------------|
B |-13p12-13p12-13p12-------15b17--15b17r15-12|
G |-------------------12-12-------------------|
D |-------------------------------------------|
A |-------------------------------------------|
E |-------------------------------------------|

    G                 F             C
E |-----15-15-----15-15-13------13------|------------------|
B |-----------------------13----13------|-8--------8-------|
G|14b16-----14b16----------r12-12b14r12|-7h9p7----7h9p7---|
D |-------------------------------------|-------10-------10|
A |-------------------------------------|------------------|
E |-------------------------------------|------------------|

    D
E |-------------------------------------------*|-(12)-||
B |-------------------------------------------*|-(12)-||
G |-------10----10-------10-10------10----10--*|-(12)-||
D|10/12--9h11--11h12p11-9--11p9----9-----9---*|------||
A |------------------------------12----12------|------||
E |--------------------------------------------|------||

    Em                            G
E |------12--------------------------|-----15-------15-----15-----15-----15|
B|15b17----15b17r15-12--------------|-------------------------------------|
G |---------------------14b16r14p12--|14b16----14b16--14b16--14b16--14b16--|
D |--------------------------------14|-------------------------------------|
A |----------------------------------|-------------------------------------|
E |----------------------------------|-------------------------------------|

    Am
E |------------------------------------------------------|
B |------------------------------------------------------|
G |-14b16-14b16r14-12-14----12-14b16r14b16r14-14b16r14-12|
D |----------------------14------------------------------|
A |------------------------------------------------------|
E |------------------------------------------------------|

    Em
E |--------------------------------------||----------------------------|
B |--------------------------------------||--Volume cai gradativamente-|
G |--------------------------------------||-------(“Fade Out")---------|
D |-14---------12-------------------12-14||----------------------------|
A |------12h14----12-12/10-12/14-14------||----------------------------|
E |--------------------------------------||----------------------------|
00:00 / 00:00
Outros vídeos desta música
Repetir
Outros vídeos desta música
Composição de Jimi Hendrix
Colaboração e revisão:
  • Márcio Garcia
27.519 exibições
    • ½ Tom
    • A
    • Bb
    • B
    • C
    • Db
    • D
    • Eb
    • E
    • F
    • F#
    • G
    • Ab
  • Adicionar à lista

    0 comentários

    Ver todos os comentários

    Conseguiu tocar?

    3 Tocaram 1 Ainda não

    Grave um vídeo tocando Little Wing e nos envie!

    Entre para oCifra Club PRO

    Tenha acesso a benefícios exclusivos no App e no Site

    • Chega de anúncios

    • Prioridade de compra em lançamentos

    • Mais recursos no app do Afinador

    • Atendimento Prioritário

    • Descontos nos produtos Cifra Club

    • Ajude a produzir mais conteúdo

    00:00 / 00:00
    Capítulos
    • Tocando a Música
    • Ensinando Introdução
    • Ensinando Primeira Estrofe
    • Ensinando Segunda Estrofe
    • Ensinando Solo
    • Encerramento

    Cifra Club Pro

    Aproveite o Cifra Club com benefícios exclusivos e sem anúncios
    Cifra Club Pro
    Aproveite o Cifra Club com benefícios exclusivos e sem anúncios
    OK