Cifra Club

Aprenda

Manic Depression

Jimi Hendrix

Cifra: Principal (violão e guitarra)
Já pensou em usar uma coleção de roupas do Cifra Club? Responda as perguntas abaixo e nos ajude nessa missão! →
tom: B
   "We'd like to do a frustrating kind of song for you.  It's called
   Manic Depression - it's a story 'bout a cat wishin' he could make
   love to music, instead of the same old everyday woman, O.K.?"



KEY

  7b(9)     fret at 7th fret, pick string and
            and bend up to the pitch of the 9th fret

  ~~~~~~    vibrato

  5 (5)\0   Strike at the 5th fret, hold the note, slide down to 0

  -----5~~~ Unison bend.  Strike the 5 and 7 at the same time and 
  7b(9)-    then bend the 7 up to the 9 so it is ALMOST the same pitch
            as the 5 but not quite, so you get that cool warbling sound :)


Time     -1-    -2-    -3-    -1-    -2-    -3-  
    
     eb|--------------------|--------------------|
 3   A#|--------------------|--------------------|
 _   Gb|--------------------|--------------------|
     Db|--------------------|--------------------|
 4   G#|--5-----6-----7-----|--------------------|
     Eb|--------------------|--------------------|

    -1-   -2-   -3-  +   -1-   -2-   -3-      -1-   -2-   -3- 

eb|--------------------|--------------------|--------------------|
Bb|--------------------|--------------------|--------------------|
Gb|--------------------|--------------------|--------------------|
Db|--5-----6-----7---7-|--------7--5--7--5--|--------7--5--7--5--|
Ab|--------------------|--0-----------------|--0-----------------|
Eb|--------------------|--------------------|--------------------|

    -1-   -2-   -3-      -1-   -2-   -3-      -1-   -2-   -3- 

eb|--------------------|--------------------|--------------------|
Bb|--------------------|--------------------|--------------------|
Gb|--------------------|--------------------|--------------------|
Db|--------7--5--7--5--|--------7--5--7--5--|--------------------|
Ab|--0-----------------|--0-----------------|--0-----4-----7-----|
Eb|--------------------|--------------------|--------------------|

                                               Man---ic...

    -1-   -2-   -3-      -1-   -2-   -3-      -1-   -2-   -3- 

eb|--------------------|--------------------|--------------------|
Bb|--------------------|--------------------|--------------------|
Gb|--------------------|--------------------|--------------------|
Db|--------------------|--------------------|--------7--5--7--5--|
Ab|--------2-----5--3--|--5-----6-----7-----|--0-----------------|
Eb|--3-----------------|--------------------|--------------------|

    -1-   -2-   -3-      -1-   -2-   -3-      -1-   -2-   -3- 

eb|--------------------|--------------------|--------------------|
Bb|--------------------|--------------------|--------------------|
Gb|--------------------|--------------------|--------------------|
Db|--------7--5--7--5--|--------7--5--7--5--|--------7--5--7--5--|
Ab|--0-----------------|--0-----------------|--0-----------------|
Eb|--------------------|--------------------|--------------------|

    -1-   -2-   -3-      -1-   -2-   -3-      -1-   -2-   -3- 

eb|--------------------|--------------------|--------------------|
Bb|--------------------|--------------------|--------------------|
Gb|--------------------|--------------------|--------------------|
Db|--------------------|--------------------|--------------------|
Ab|--0-----4-----7-----|--------2-----5--3--|--5-----6-----7-----|
Eb|--------------------|--3-----------------|--------------------|

    -1-   -2-   -3-      -1-   -2-   -3-      -1-   -2-   -3- 

eb|--------------------|--------------------|--------------------|
Bb|--------------------|--------------------|--------------------|
Gb|--------------------|--------------------|--------------------|
Db|--------7--5--7--5--|--------7--5--7--5--|--------7--5--7--5--|
Ab|--0-----------------|--0-----------------|--0-----------------|
Eb|--------------------|--------------------|--------------------|

    -1-   -2-   -3-      -1-   -2-   -3-      -1-   -2-   -3- 

eb|--------------------|--------------------|--------------------|
Bb|--------------------|--------------------|--------------------|
Gb|--------------------|--------------------|--------------------|
Db|--------7--5--7--5--|--------------------|--------------------|
Ab|--0-----------------|--------4-----2-----|--------2-----5-----|
Eb|--------------------|--0-----------------|--3-----------------|

    -1-   -2-   -3-      -1-   -2-   -3-      -1-   -2-   -3- 

eb|--------------------|--------------------|--------------------|
Bb|--------------------|--------------------|--------------------|
Gb|--------------------|--------------------|--------------------|
Db|--------------------|--------------------|--------------------|
Ab|--5--------3--5--3--|--5--------1--3--1--|--3--1--3--1--------|
Eb|--------------------|--------------------|--------------3--1--|

    -1-   -2-   -3-      -1-   -2-   -3-      -1-   -2-   -3- 

eb|--------------------|--------------------|--------------------|
Bb|--------------------|--------------------|--------------------|
Gb|--------------------|--------------------|--------------------|
Db|--------------------|--------------------|--------------------|
Ab|--------------------|--0-----4-----7-----|--------2-----5--3--|
Eb|--3--1--3--1--3-----|--------------------|--3-----------------|

    -1-   -2-   -3-      -1-   -2-   -3-      -1-   -2-   -3- 

eb|--------------------|--------------------|--------------------|
Bb|--------------------|--------------------|--------------------|
Gb|--------------------|--------------------|--------------------|
Db|--------------------|--------------------|--5-----6-----7-----|
Ab|--5-----6-----7-----|--------------------|--------------------|
Eb|--------------------|--------------------|--------------------|

    -1-   -2-   -3-      -1-   -2-   -3-      -1-   -2-   -3- 

eb|--------------------|--------------------|--------------------|
Bb|--------------------|--------------------|--------------------|
Gb|--------------------|--------------------|--------------------|
Db|--------7--5--7--5--|--------7--5--7--5--|--------7--5--7--5--|
Ab|--0-----------------|--0-----------------|--0-----------------|
Eb|--------------------|--------------------|--------------------|

    -1-   -2-   -3-      -1-   -2-   -3-      -1-   -2-   -3- 

eb|--------------------|--------------------|--------------------|
Bb|--------------------|--------------------|--------------------|
Gb|--------------------|--------------------|--------------------|
Db|--------7--5--7--5--|--------------------|--------------------|
Ab|--0-----------------|--0-----4-----7-----|--------2-----5--3--|
Eb|--------------------|--------------------|--3-----------------|

    -1- + -2- +  -3- +   -1-   +   -2-    +   -3-    

eb|--------------------|----------------------------|
Bb|--------------------|------------5~~~-------5~~~-|
Gb|--------------------|-------7b(9)------7b(9)-----|
Db|--------------------|----------------------------|
Ab|--5-----6-----7-----|--0-------------------------|
Eb|--------------------|----------------------------|

    -1-   +   -2-    +   -3-     -1-   +   -2-    +   -3- 

eb|----------------------------|----------------------------|
Bb|------------5~~~-------5~~~-|------------5~~~-------5~~~-|
Gb|-------7b(9)------7b(9)-----|-------7b(9)------7b(9)-----|
Db|----------------------------|----------------------------|
Ab|--0-------------------------|--0-------------------------|
Eb|----------------------------|----------------------------|

    -1-   +    -2-   +   -3-      -1-   -2-   -3-      -1-   -2-   -3- 

eb|----------------------------|--------------------|--------------------|
Bb|------------5~~~-------5~~~-|--------------------|--------------------|
Gb|-------7b(9)------7b(9)-----|--------------------|--------------------|
Db|----------------------------|--------------------|--------------------|
Ab|----------------------------|--0-----4-----7-----|--------2-----5--3--|
Eb|--0-------------------------|--------------------|--3-----------------|

eb|--------------------|----------------------------|
Bb|--------------------|------------5~~~-------5~~~-|
Gb|--------------------|-------7b(9)------7b(9)-----|
Db|--------------------|----------------------------|
Ab|--5-----4-----7-----|--0-------------------------|
Eb|--------------------|----------------------------|

    -1-   +   -2-    +   -3-     -1-   +   -2-    +   -3- 

eb|----------------------------|----------------------------|
Bb|------------5~~~-------5~~~-|------------5~~~-------5~~~-|
Gb|-------7b(9)------7b(9)-----|-------7b(9)------7b(9)-----|
Db|----------------------------|----------------------------|
Ab|--0-------------------------|--0-------------------------|
Eb|----------------------------|----------------------------|

    -1-   -2-   -3-      -1-   -2-   -3-      -1-   -2-   -3-   

eb|--------------------|--------------------|--------------------|
Bb|--------------------|--------------------|--------------------|
Gb|--------------------|--------------------|--------------------|
Db|--------------------|--------------------|--------------------|
Ab|--------------------|--------------2-----|--------2-----5-----|
Eb|--5--------(5)\0----|--0-----4-----------|--3-----------------|

    -1-   -2-   -3-      -1-   -2-   -3-      -1-   -2-   -3- 

eb|--------------------|--------------------|--------------------|
Bb|--------------------|--------------------|--------------------|
Gb|--------------------|--------------------|--------------------|
Db|--------------------|--------------------|--------------------|
Ab|--5--------3--5--3--|--5--------1--3--1--|--3--1--3--1--------|
Eb|--------------------|--------------------|--------------3--1--|

    -1-   -2-   -3-      -1-   -2-   -3-      -1-   -2-   -3- 

eb|--------------------|--------------------|--------------------|
Bb|--------------------|--------------------|--------------------|
Gb|--------------------|--------------------|--------------------|
Db|--------------------|--------------------|--------------------|
Ab|--------------------|--0-----4-----7-----|--------2-----5--3--|
Eb|--3--1--3--1--3-----|--------------------|--3-----------------|

    -1-   -2-   -3-      -1-   -2-   -3-      -1-   -2-   -3- 

eb|--------------------|--------------------|--------------------|
Bb|--------------------|--------------------|--------------------|
Gb|--------------------|--------------------|--------------------|
Db|--------------------|--------------------|--5-----6-----7-----|
Ab|--5-----6-----7-----|--------------------|--------------------|
Eb|--------------------|--------------------|--------------------|

    -1-   -2-   -3-      -1-   -2-   -3-      -1-   -2-   -3-

eb|--------------------|--------------------|--------------------|
Bb|--------------------|--------------------|--------------------|
Gb|--------------------|--------------------|--------------------|    
Db|--X-----X-----X-----|--------------------|--5-----6-----7-----|
Ab|--X-----X-----X-----|--5-----6-----7-----|--------------------|
Eb|--X-----X-----X-----|--------------------|--------------------|

    -1-   +    -2-   +   -3-     -1-   -2-   -3-

eb|----------------------------|--------------------|
Bb|-------5~~~~~~~~~~~~~~~~~~~~|~~~~~~~~~~~~~~------|
Gb|--7b(9)---------------------|--------------------|
Db|----------------------------|--------------------|
Ab|----------------------------|--------------------|
Eb|----------------------------|--------------------|

    -1-     +    -2-   +   -3-     -1-   -2-   -3-

eb|------------------------------|--------------------|
Bb|---------8~~~~~~~~~~~~~~~~~~~~|~~~~~~~~~~~~~~------|
Gb|--10b(12)---------------------|--------------------|
Db|------------------------------|--------------------|
Ab|------------------------------|--------------------|
Eb|------------------------------|--------------------|

    -1-     +    -2-   +   -3-     -1-   -2-   -3-

eb|---------7~~~~~~~~~~~~~~~~~~~~|~~~~~~~~~~~~~~------|
Bb|--10b(12)---------------------|--------------------|
Gb|------------------------------|--------------------|
Db|------------------------------|--------------------|
Ab|------------------------------|--------------------|
Eb|------------------------------|--------------------|

    -1-     +    -2-   +   -3-     

eb|---------10~~~~~~~~~~~~~~~~~~~|
Bb|--13b(15)---------------------|
Gb|------------------------------|
Db|------------------------------|
Ab|------------------------------|
Eb|------------------------------|

-|-----------------------------------------------------------|-
\ /                                                         \ /
 v                                                           v
***  I N S E R T   2 8   B A R S   O F   S O L O   H E R E  ***
 ^                                                           ^
/ \                                                         / \
-|-----------------------------------------------------------|-

    -1-   -2-   -3-      -1-   -2-   -3-      -1-   -2-   -3- 

eb|--------------------|--------------------|--------------------|
Bb|--------------------|--------------------|--------------------|
Gb|--------------------|--------------------|--------------------|
Db|--------7--5--7--5--|--------------------|--------------------|
Ab|--0-----------------|--0-----4-----7-----|--------2-----5--3--|
Eb|--------------------|--------------------|--3-----------------|

    -1- + -2- +  -3-  +  -1-   +   -2-    +   -3-    

eb|--------------------|----------------------------|
Bb|--------------------|------------5~~~-------5~~~-|
Gb|--------------------|-------7b(9)------7b(9)-----|
Db|--------------------|----------------------------|
Ab|--5-----6-----7-----|--0-------------------------|
Eb|--------------------|----------------------------|

    -1-   +   -2-    +   -3-     -1-   +   -2-    +   -3-    + 

eb|----------------------------|----------------------------------|
Bb|------------5~~~-------5~~~-|------------10~~~-------10~~~-----|
Gb|-------7b(9)------7b(9)-----|------12b(14)-----12b(14)--12b(14)|
Db|----------------------------|----------------------------------|
Ab|--0-------------------------|--0-------------------------------|
Eb|----------------------------|----------------------------------|

   -1-   +    -2-   +   -3-  +   -1-   -2-   -3-      -1-   -2-   -3- 

eb|----------------------------|--------------------|--------------------|
Bb|--10~~~------10~~~-----8--9-|--------------------|--------------------|
Gb|-------7b(9)----------------|--------------------|--------------------|
Db|----------------------------|--------------------|--------------------|
Ab|----------------------------|--0-----4-----7-----|--------2-----5--3--|
Eb|----------------------------|--------------------|--3-----------------|

eb|--------------------|----------------------------|
Bb|--------------------|------------5~~~-------5~~~~|
Gb|--------------------|-------7b(9)------7b(9)-----|
Db|--------------------|----------------------------|
Ab|--5-----4-----7-----|--0-------------------------|
Eb|--------------------|----------------------------|

    -1-   +   -2-    +   -3-     -1-   +   -2-    +   -3- 

eb|----------------------------|----------------------------|
Bb|~~~~~~------5~~~-------5~~~-|------------5~~~-------5~~~-|
Gb|-------7b(9)------7b(9)-----|-------7b(9)------7b(9)-----|
Db|----------------------------|----------------------------|
Ab|----------------------------|--0-------------------------|
Eb|----------------------------|----------------------------|

    -1-   -2-   -3-      -1-   -2-   -3-      -1-   -2-   -3-   

eb|--------------------|--------------------|--------------------|
Bb|--------------------|--------------------|--------------------|
Gb|--------------------|--------------------|--------------------|
Db|--------------------|--------------------|--------------------|
Ab|--------------------|--------------2-----|--------2-----5-----|
Eb|--5--------(5)\0----|--0-----4-----------|--3-----------------|

    -1-   -2-   -3-      -1-   -2-   -3-      -1-   -2-   -3- 

eb|--------------------|--------------------|--------------------|
Bb|--------------------|--------------------|--------------------|
Gb|--------------------|--------------------|--------------------|
Db|--------------------|--------------------|--------------------|
Ab|--5--------3--5--3--|--5--------1--3--1--|--3--1--3--1--------|
Eb|--------------------|--------------------|--------------3--1--|

    -1-   -2-   -3-      -1-   -2-   -3-      -1-   -2-   -3- 

eb|--------------------|--------------------|--------------------|
Bb|--------------------|--------------------|--------------------|
Gb|--------------------|--------------------|--------------------|
Db|--------------------|--------------------|--------------------|
Ab|--------------------|--0-----4-----7-----|--------2-----5--3--|
Eb|--3--1--3--1--3-----|--------------------|--3-----------------|

    -1-   -2-   -3-      -1-   -2-   -3-      

eb|--------------------|--------------------|
Bb|--------------------|--------------------|
Gb|--------------------|--------------------|
Db|--------------------|--------------------|
Ab|--5-----6-----7-----|--------------------|
Eb|--------------------|--------------------|

    -1-   -2-   -3-      -1-   -2-   -3-      

eb|--------------------|--------------------|
Bb|--------------------|--------------------|
Gb|--------------------|--------------------|
Db|--5-----6-----7-----|--------------------|
Ab|--------------------|--------------------|
Eb|--------------------|--------------------|

    -1-   -2-   -3-      -1-   -2-   -3-      

eb|--------------------|--------------------|
Bb|--------------------|--------------------|
Gb|--------------------|--------------------|
Db|--------------------|--------------------|
Ab|--5-----6-----7-----|--------------------|
Eb|--------------------|--------------------|

    -1-   -2-   -3-      -1-   -2-   -3-      

eb|--------------------|--------------------|
Bb|--------------------|--------------------|
Gb|--------------------|--------------------|
Db|--5-----6-----7-----|--------------------|
Ab|--------------------|--------------------|
Eb|--------------------|--------------------|

    -1-   -2-   -3-      -1-   -2-   -3-      

eb|--------------------|--------------------|
Bb|--------------------|--------------------|
Gb|--------------------|--------------------|
Db|--------------------|--5-----6-----7-----|
Ab|--5-----6-----7-----|--------------------|
Eb|--------------------|--------------------|

    -1-   -2-   -3-      -1-   -2-   -3-      

eb|--------------------|--------------------|
Bb|--------------------|--------------------|
Gb|--------------------|--------------------|
Db|--------------------|--5-----6-----7-----|
Ab|--5-----6-----7-----|--------------------|
Eb|--------------------|--------------------|

    -1-   -2-   -3-      -1-   +   -2-   +   -3-

eb|--------------------|----------------------------|
Bb|--------------------|-------5~~~~~~~~~~~~~~~~~~\0|
Gb|--------------------|--7b(9)---------------------|
Db|--------------------|----------------------------|
Ab|--5-----6-----7-----|----------------------------|
Eb|--------------------|----------------------------|

    -1-   -2-   -3-      -1-   +   -2-   +   -3-

eb|--------------------|----------------------------|
Bb|--------------------|--------10~~~~~~~~~~~~~~~~\0|
Gb|--------------------|-12b(14)--------------------|
Db|--5-----6-----7-----|----------------------------|
Ab|--------------------|----------------------------|
Eb|--------------------|----------------------------|

    -1-   -2-   -3-      -1-   +   -2-   +   -3-

eb|--------------------|----------------------------|
Bb|--------------------|-------5~~~~~~~~~~~~~~~~~~\0|
Gb|--------------------|--7b(9)---------------------|
Db|--------------------|----------------------------|
Ab|--5-----6-----7-----|----------------------------|
Eb|--------------------|----------------------------|

    -1-   -2-   -3-      -1-   +   -2-   +   -3-

eb|--------------------|----------------------------|
Bb|--------------------|--------10~~~~~~~~~~~~~~~~\0|
Gb|--------------------|-12b(14)--------------------|
Db|--5-----6-----7-----|----------------------------|
Ab|--------------------|----------------------------|
Eb|--------------------|----------------------------|

    -1-   -2-   -3-      -1-   -2-   -3-      

eb|--------------------|--------------------|
Bb|--------------------|--------------------|
Gb|--------------------|--------------------|
Db|--------------------|--5-----6-----7-----|
Ab|--5-----6-----7-----|--------------------|
Eb|--------------------|--------------------|

    -1-   -2-   -3-      -1-   -2-   -3-      

eb|--------------------|--------------------|
Bb|--------------------|--------------------|
Gb|--------------------|--------------------|
Db|--------------------|--5-----6-----7-----|
Ab|--5-----6-----7-----|--------------------|
Eb|--------------------|--------------------|

    -1-   -2-   -3-      -1-   +   -2-   +   -3-

eb|--------------------|----------------------------|
Bb|--------------------|-------5~~~~~~~~~~~~~~~~~~\0|
Gb|--------------------|--7b(9)---------------------|
Db|--------------------|----------------------------|
Ab|--5-----6-----7-----|----------------------------|
Eb|--------------------|----------------------------|

    -1-   -2-   -3-      -1-   +   -2-   +   -3-

eb|--------------------|----------------------------|
Bb|--------------------|-------5~~~~~~~~~~~~~~~~~~\0|
Gb|--------------------|--7b(9)---------------------|
Db|--------------------|----------------------------|
Ab|--5-----6-----7-----|----------------------------|
Eb|--------------------|----------------------------|

    -1-   -2-   -3-      -1-   +   -2-   +   -3-

eb|--------------------|----------------------------|
Bb|--------------------|-------5~~~~~~~~~~~~~~~~~~\0|
Gb|--------------------|--7b(9)---------------------|
Db|--------------------|----------------------------|
Ab|--5-----6-----7-----|----------------------------|
Eb|--------------------|----------------------------|

    -1-   -2-   -3-      -1-   +   -2-   +   -3-

eb|--------------------|----------------------------|
Bb|--------------------|--------10~~~~~~~~~/12~~~~\0|
Gb|--------------------|-12b(14)--------------------|
Db|--5-----6-----7-----|----------------------------|
Ab|--------------------|----------------------------|
Eb|--------------------|----------------------------|

    -1-   -2-   -3-      -1-   -2-   -3-      

eb|--------------------|--------------------|
Bb|--------------------|--------------------|
Gb|--------------------|--------------------|
Db|--------------------|--5-----6-----7-----|
Ab|--5-----6-----7-----|--------------------|
Eb|--------------------|--------------------|

    -1-   -2-   -3-      -1-   -2-   -3-      

eb|--------------------|--------------------|
Bb|--------------------|--------------------|
Gb|--------------------|--------------------|
Db|--------------------|--5-----6-----7-----|
Ab|--5-----6-----7-----|--------------------|
Eb|--------------------|--------------------|

    -1-   -2-   -3-      -1-   -2-   -3-      

eb|--------------------|--------------------|
Bb|--------------------|--------------------|
Gb|--------------------|--------------------|
Db|--------------------|--5-----6-----7-----|
Ab|--5-----6-----7-----|--------------------|
Eb|--------------------|--------------------|

    -1-   +    -2-   +   -3-     -1-   -2-   -3-

eb|----------------------------|--------------------|
Bb|-------5~~~~~~~~~~~~~~~~~~~~|~~~~~~~~~~~~~~------|
Gb|--7b(9)---------------------|--------------------|
Db|----------------------------|--------------------|
Ab|----------------------------|--------------------|
Eb|----------------------------|--------------------|

    -1-     +    -2-   +   -3-     -1-   -2-   -3-

eb|------------------------------|--------------------|
Bb|---------8~~~~~~~~~~~~~~~~~~~~|~~~~~~~~~~~~~~------|
Gb|--10b(12)---------------------|--------------------|
Db|------------------------------|--------------------|
Ab|------------------------------|--------------------|
Eb|------------------------------|--------------------|

    -1-     +    -2-   +   -3-     -1-   -2-   -3-

eb|---------7~~~~~~~~~~~~~~~~~~~~|~~~~~~~~~~~~~~------|
Bb|--10b(12)---------------------|--------------------|
Gb|------------------------------|--------------------|
Db|------------------------------|--------------------|
Ab|------------------------------|--------------------|
Eb|------------------------------|--------------------|

    -1-     +    -2-   +   -3-    +   -1-    + -2-   + -3- 

eb|---------10~~~~~~~~~~~~~~~~~~10~|~10~~~~10~10~~~10~10~~~|
Bb|--13b(15)-----------------------|-----------------------|
Gb|--------------------------------|-----------------------|
Db|--------------------------------|-----------------------|
Ab|--------------------------------|-----------------------|
Eb|--------------------------------|-----------------------|

--> OUTRO  <--

I'm in the process of tabbing this now, and will post it soon :)


Sorry guys, but I haven't got time (or the technique) to type in the 
solo, so just listen to the song (from the JHE's "Are You Experienced?")
and pick up what you can...

Stay Free,


 
Composição de Jimi Hendrix
12.754 exibições
    • ½ Tom
    • A
    • Bb
    • B
    • C
    • Db
    • D
    • Eb
    • E
    • F
    • F#
    • G
    • Ab
  • Adicionar à lista

    0 comentários

    Ver todos os comentários

    Conseguiu tocar?

    1 Tocaram 0 Ainda não

    Grave um vídeo tocando Manic Depression e nos envie!

    00:00 / 00:00
    Outros vídeos desta música
    Repetir Qualidade Automático
    Outros vídeos desta música
    00:00 / 00:00
    Automático

    Cifra Club Pro

    Aproveite o Cifra Club com benefícios exclusivos e sem anúncios
    Cifra Club Pro
    Aproveite o Cifra Club com benefícios exclusivos e sem anúncios
    OK