Cifra Club

Aprenda

Stone Free

Jimi Hendrix

Tab de baixo: Principal
Já pensou em usar uma coleção de roupas do Cifra Club? Responda as perguntas abaixo e nos ajude nessa missão! →
  starts with a real neat slide up     "every day in the week..."
G|--------------------------------------------------------------------------|
D|--------------------------------------------------------------------------|
A|-18-18-18/9--9-9------7-------9-9-----7-----9-9-----7---------------------|
E|-----------------7/9----9---------7/9---9-------7/9---9-------------------|

  "they talk about me like a dog...."
G|--------------------------------------------------------------------------|
D|-9-9------7-------9-9-----7--------9-9-----7-------9-9--7-5---------------|
A|-----7/9----9---------7/9---9----------7/9---9--------------7-------------|
E|--------------------------------------------------------------------------|

 "but they don't realise......"
G|--------------------------------------------------------------------------|
D|--------------------------------------------------------------------------|
A|-9-9-----7------9-9------7--------9-9-----7------9-7----7-----------------|
E|-----7/9---9--------7/9----9----------7/9---9--------7--------------------|

  "that's why you can't hold me down..."
G|--------------------------------------------------------------------------|
D|--------------------------------------------------------------------------|
A|-7-7-7-7-5>--6-7-7-7-7-5>--6-7-7-7-7-5>--6-7-7-7-7------------------------|
E|---------------------------------------------------5----------------------|

 (refrão) "Stone free,  to do what I please"
G|---------------------------------------------------------------------------|
D|---------------------------------------------------------------------------|
A|-5-5-3-53-53-5-5-3-53-53-5-5-3-53-53--------3------------------------------|
E|--------------------------------------2-3-5--------------------------------|

  "I got to got to got to get away"
G|--------------------------------------------------------------------------|
D|--------------------------------------------------------------------------|
A|-3-0r--3------------------------------------------------------------------|
E|---------5>---------------------------------------------------------------|

that's pretty much it,  repeat for other verses.   Except the bit at the end where it runs up to
G|---------------------------------------------------------------------------|
D|-----3-----------3---------3----------3------------------------------------|
A|-3-5--------3-5--------3-5--------3-5--------------------------------------|
E|---------------------------------------------------------------------------|
Composição de Jimi Hendrix
Colaboração e revisão:
  • Élison Duarte
340 exibições

0 comentários

Ver todos os comentários

Conseguiu tocar?

0 Tocaram 0 Ainda não

Grave um vídeo tocando Stone Free e nos envie!

00:00 / 00:00
Outros vídeos desta música
Repetir Qualidade Automático
Outros vídeos desta música
00:00 / 00:00
Automático

Cifra Club Pro

Aproveite o Cifra Club com benefícios exclusivos e sem anúncios
Cifra Club Pro
Aproveite o Cifra Club com benefícios exclusivos e sem anúncios
OK