Cifra Club

Aprenda

Voodoo Child

Jimi Hendrix

Cifra: Principal (violão e guitarra)
tom: A
[Intro]

[Wah-Wah]

eb:|-X-X---X-X-X-----------X-X-|
Bb:|-X-X---X-X-X-----------X-X-|
F#:|-X-X-----X-------------X---|
C#:|-X-X-X-------X-X-X-X-X-X---|
G#:|-X-X-X-------X-X-X-X-X-----|
Eb:|-X-X-X-------X-X-X-X-X-----|

eb:|---------------------------------X-|
Bb:|---------------------------------X-|
F#:|-9-7---7-----------9-7---7/9---X-X-|
Db:|-----9---5-5-7p5-------9-------X-X-|
G#:|-----------------7-------------X---|
Eb:|-------------------------------X---|

eb:|---------------------------------X-|
Bb:|---------------------------------X-|
F#:|-9-7---7-----------9-7---7/9---X-X-|
Db:|-----9---5-5-7p5-------9-------X-X-|
G#:|-----------------7-------------X---|
Eb:|-------------------------------X---|

eb:|---------------------------------X-|
Bb:|---------------------------------X-|
F#:|-9-7---7-----------9-7---7/9---X-X-|
Db:|-----9---5-5-7p5-------9-------X-X-|
G#:|-----------------7-------------X---|
Eb:|-------------------------------X---|

eb:|----------------------------------------------|
Bb:|---------------------------10b12-12-12r10-8---|
F#:|-9-7---7-----------9-7---9------------------9-|
Db:|-----9---5-5-7p5-------9----------------------|
G#:|-----------------7----------------------------|
Eb:|----------------------------------------------|

eb:|-------------------------------------------|
Bb:|-------------------------------------------|
Gb:|---0-2b4r2p0---------------0-2b4r2p0-------|
Db:|-2-----------2-2-----0h2-2-----------2-----|
G#:|-2-----------2-2---------2-----------2---2-|
Eb:|-0-----------0-0-3b4-----0-----------0-3-0-|

(0:38)
eb:|--------------------------|
Bb:|--------------------------|
Gb:|-14b16-14-14b16r14-12-----|
C#:|--------------------------|
G#:|--------------------------|
Eb:|----------------------15-|

eb:|-----------------------------------------0-0-0-|
Bb:|------------------*----------------------0-0-0-|
Gb:|---0-2b4r2p0-----2b4~------4r2p0---------1-1-1-|
C#:|-2-----------2-2-----------------2-----2-2-2-2-|
G#:|-2-----------2-2-----------------2-------2-2-2-|
Eb:|-0-----------0-0-----------------0-3b4---------|
* switch pickups back and forth while the bend rings out

(0:48)
eb:|-------12-----------------------------------------------------------------------|
Bb:|-15b17----15b17r15p12----------------------------------------------------12~----|
Gb:|----------------------14b16-14b16r14p12----14-12-14p12----14b16-14-14b16-12~----|
C#:|----------------------------------------14-------------14-----------------------|
G#:|--------------------------------------------------------------------------------|
Eb:|----------------------------------------------------------------------------12-|

eb:|---------------------------------X-3-3-----------------|
Bb:|---------------------------------X-3-3-----------------|
Gb:|-------------0-2b4r2p0---------------------------------|
C#:|-2-------2-------------2-------2-----------2---------2-|
G#:|-2---------------------2---------------------X-X-------|
Eb:|-0-0-3b4---0-----------0-0-3b4---------3b4---X-X-3b4---|

eb:|-----------------------|
Bb:|-----------------------|
Gb:|---0-2b4r2p0-----------|
C#:|-2-----------2-------2-|
G#:|-2-----------2---------|
Eb:|-0-----------0-0-3b4---|

eb:|---------------------------|
Bb:|---------------------------|
F#:|---------------------------|
C#:|-----0-2-5-2---0-2~--------|
G#:|-2-2---------2-------------|
Eb:|---------------------0-3b4-|
Well, I stand up next to a mountain..

eb:|-----------------------------------|
Bb:|----------------------------15b17~-|
Gb:|-------0-2b4r2p0-------------------|
C#:|-------------------2-2---2---------|
G#:|-------------------2-2-------------|
Eb:|-----------------0-0-0-3-----------|
And I chop it down with the edge of my hand..

eb:|-----------------------------------------|
Bb:|-----------------------------------------|
Gb:|-----------0-2b4r2p0-----------2b4r2p0---|
C#:|-2-----2-------------------2-------------|
G#:|-2-2-----------------2-2---------------2-|
Eb:|-0-0-3---0-----------0-0-3---0---------0-|

eb:|-----5b7-0-5-5-3-5-5p3--------------|
Bb:|-3-5-------------------5------------|
Gb:|--------------------------2b4r2p0---|
C#:|----------------------------------2-|
G#:|----------------------------------2-|
Eb:|----------------------------------0-|
Well, I stand up next to a mountain..

eb:|---------------------------------|
Bb:|-3-0-3b5r3p0---------------------|
Gb:|-------------2-0-2-0-2b4-4r2p0---|
C#:|-------------------------------2-|
G#:|---------------------------------|
Eb:|---------------------------------|
And I chop it down with the edge of my hand..

eb:|-----------0-------------|
Bb:|-----------0-------------|
F#:|-----------1-------------|
C#:|-2-------2---2-------2-2-|
G#:|-2-----------2---------2-|
Eb:|-0-0-3b4-----0-0-3b4---0-|

eb:|-----------------------------------------------------------------|
Bb:|-----------------------------------------------------------------|
F#:|-4-4-4-4-4-4-4-4-4-4-4-4-4-4-4-4-2-2-2-2-2-2-2-2-2-2-2-2-2-2-2-2-|
C#:|-0-0-0-0-0-0-0-0-0-0-0-0-0-0-0-0-0-0-0-0-0-0-0-0-0-0-0-0-0-0-0-0-|
G#:|-5-5-5-5-5-5-5-5-5-5-5-5-5-5-5-5-4-4-4-4-4-4-4-4-4-4-4-4-4-4-4-4-|
Eb:|-----------------------------------------------------------------|
Well, I pick up all the pieces and make an island; might even raise a little sand

eb:|-----------0-------------------|
Bb:|-----------0-------------------|
Gb:|-------------2b4r2p0-----------|
C#:|-2-------2-----------2---------|
G#:|-2-------2-------------2-2-2-2-|
Eb:|-0-0-3b4-0-------------0-0-0-0-|

eb:|-----------------------------------------------------------------|
Bb:|-----------------------------------------------------------------|
F#:|-3-3-3-3-3-3-3-3-3-3-3-3-3-3-3-3-5-5-5-5-5-5-5-5-5-5-5-5-5-5-5-5-|
C#:|-2-2-2-2-2-2-2-2-2-2-2-2-2-2-2-2-4-4-4-4-4-4-4-4-4-4-4-4-4-4-4-4-|
G#:|-3-3-3-3-3-3-3-3-3-3-3-3-3-3-3-3-5-5-5-5-5-5-5-5-5-5-5-5-5-5-5-5-|
Eb:|-----------------------------------------------------------------|
Cause I'm a voodoo child; Lord knows I'm a voodoo child

eb:|---0-0-----0-0-0--------------------|
Bb:|---0-0-----0-0-0--------------------|
Gb:|-------------------------------3b5~-|
C#:|-2-----2-2-------2-------2-2--------|
G#:|-2-----2-2-------2---------2--------|
Eb:|-0-----0-0-------0-0-3b4---0--------|

Solo (1:54):
eb:|-------------------------------|
Bb:|-15b17--15b17r15-12-15-15b17~--|
F#:|-------------------------------|
C#:|-------------------------------|
G#:|-------------------------------|
Eb:|-------------------------------|

eb:|---------------------------------------------|
Bb:|-15b17r15p12-15-15p12-------15p12------------|
Gb:|----------------------14b16-------14b18-12~--|
C#:|---------------------------------------------|
G#:|---------------------------------------------|
Eb:|---------------------------------------------|

eb:|---------------------------------|
Bb:|---------------------------------|
F#:|---------------------------------|
C#:|-14-12-------------14-12----14~--|
Ab:|-------14-12p10----------14------|
Eb:|----------------12---------------|

(2:04)
eb:|-------12-15b17-15-12-12h14p12----12--|
Bb:|-15b17-------------------------15-----|
F#:|--------------------------------------|
C#:|--------------------------------------|
G#:|--------------------------------------|
Eb:|--------------------------------------|

eb:|-------------14p12-------------14p12-------------14p12-|
Bb:|-15p12-14p12-------15p12-14p12-------15p12-14p12-------|
F#:|-------------------------------------------------------|
C#:|-------------------------------------------------------|
G#:|-------------------------------------------------------|
Eb:|-------------------------------------------------------|

eb:|-------------------------------|
Bb:|-12-15b17-12h14p12-------------|
Gb:|-------------------14b16r14p12-|
C#:|-------------------------------|
G#:|-------------------------------|
Eb:|-------------------------------|

(2:10)
eb:|----------------------------------------------------|
Bb:|----------------------------------------------------|
Gb:|---0-2b4r2p0-------------0-2b4r2p0-----14-12--------|
Db:|-------------2-----0h2-----------------------14 12-|
G#:|-2-----------2---------------------2----------------|
Eb:|-0-----------0-0-3-----0-----------0-3/-------------|

(2:16)
eb:|--------------------------------------------------------------------------|
Bb:|-------12h15-12----------12h15-12-----------12h15-12----------12h15-12----|
Gb:|-14b16----------14-14b16----------14--14b16----------14-14b16----------14-|
C#:|--------------------------------------------------------------------------|
G#:|--------------------------------------------------------------------------|
Eb:|--------------------------------------------------------------------------|

eb:|--------------------------------------------------------------------------|
Bb:|-------12h15-12----------12h15-12-----------12h15-12----------12h15-12----|
Gb:|-14b16----------14-14b16----------14--14b16----------14-14b16----------14-|
C#:|--------------------------------------------------------------------------|
G#:|--------------------------------------------------------------------------|
Eb:|--------------------------------------------------------------------------|

eb:|--------------------------------------------------------------------------|
Bb:|-------12h15-12----------12h15-12-----------12h15-12----------12h15-12----|
Gb:|-14b16----------14-14b16----------14--14b16----------14-14b16----------14-|
C#:|--------------------------------------------------------------------------|
G#:|--------------------------------------------------------------------------|
Eb:|--------------------------------------------------------------------------|

eb:|----------------------------------|
Bb:|---15*~~~~~~~~~--15b17~~~~~~~~r15-|
Gb:|-14b16*~~~~~~~~-------------------|
C#:|----------------------------------|
G#:|----------------------------------|
Eb:|----------------------------------|
* - tremolo picking with wah

(2:27)
eb:|-----------------------------------------------|
Bb:|-----------------------------------------------|
Gb:|-------------2b4r2p0---------------2b4r2p0-----|
Db:|-2-----0h2-----------2-2-----0h2-----------2---|
G#:|-2---------------------2---------------------2-|
Eb:|-0-0-3-----0-----------0-0-3-----0-----------0-|

eb:|-----------------------------------------------------------|
Bb:|-----------------------------------------------------------|
Gb:|-----------X---X-----------------2b4r2p0-------------------|
Db:|-----0h2-X-X-X-X---0h2p0h2---------------2p0h2-------------|
G#:|---------X-X-X-X-------------------------------------------|
Eb:|-0-3-----X-X-X-X-3---------X-X-0---------------X-X-X-X-X-X-|

eb:|---------------------------------------------|
Bb:|---------------------------------------------|
Gb:|-------------------------2b4r2p0-------------|
Db:|---0h2p0h2-------0h2-------------2p0h2-------|
G#:|---------------------------------------------|
Eb:|-3---------X-X-3-----X-X---------------X-X-0-|

eb:|---------------------------------------|
Bb:|---------------------------------------|
Gb:|---------------2b4r2p0-----------------|
Db:|---0h2p0h2-------------2p0h2-------0h2-|
G#:|---------------------------------------|
Eb:|-3---------X-X---------------X-X-3-----|

(2:44)
eb:|------------------------------------|
Bb:|------------------------------------|
F#:|------------------------------------|
Db:|-7/12------7/12-12h14---------0h2---|
G#:|-7/12-127-7/12-------------------2-|
Eb:|------127------------0-X-X-3-----0-|

eb:|---------------------------|
Bb:|---------------------------|
Gb:|---------------0-2b4r2p0---|
Db:|---------0h2-------------2-|
G#:|---------------------------|
Eb:|-0-0-0-3-------------------|
I didn't mean to take up all your sweet time..

eb:|---------------------------------------------|
Bb:|---------------------------------------------|
Gb:|-----------------0-2b4r2p0-------------------|
Db:|-------0h2-0h2-------------2-----2-----0h2---|
G#:|---------------------------------------------|
Eb:|-0-0-3---------0-------------0-0---0-3-----0-|
I'll give it right back to ya, one of these days..

eb:|-----------0---------------------------------|
Bb:|-----------0-1/3-3---------------------------|
Gb:|-2b4r2p0-----2/4-4---2b4r2p0-----------------|
Db:|---------2---------2---------2-------0h2p0h2-|
G#:|---------2---------------------2-------------|
Eb:|---------0---------------------0-0-3---------|

eb:|-----------------------------|
Bb:|-----------------------------|
Gb:|---------------2b4r2p0-------|
C#:|-----------2-----------2-----|
G#:|-----------------------------|
Eb:|-0-0-0-3b4---0-----------0-0-|
I said, I didn't mean to take up all your sweet time..

eb:|--------------------------------------------------|
Bb:|--------------------------------------------------|
Gb:|-------------------------------2b4r2p0------------|
Db:|-----2-------2-------0h2p0h2-----------2----0h2---|
G#:|---------------2----------------------------------|
Eb:|-3b4---0-0-3---0-0-3---------0-----------0-3----0-|
I'll give it right back to you one of these days..

eb:|-----------------------------------------------------------------|
Bb:|-----------------------------------------------------------------|
F#:|-4-4-4-4-4-4-4-4-4-4-4-4-4-4-4-4-2-2-2-2-2-2-2-2-2-2-2-2-2-2-2-2-|
C#:|-0-0-0-0-0-0-0-0-0-0-0-0-0-0-0-0-0-0-0-0-0-0-0-0-0-0-0-0-0-0-0-0-|
G#:|-5-5-5-5-5-5-5-5-5-5-5-5-5-5-5-5-4-4-4-4-4-4-4-4-4-4-4-4-4-4-4-4-|
Eb:|-----------------------------------------------------------------|
If I don't meet you no more in this world then uh, L'll meet ya on the next one

eb:|-----------------------------0-|
Bb:|-----------------------------0-|
Gb:|---2b4r2p0---------------1-1-1-|
Db:|-2---------2-2-2---0h2---2-2-2-|
G#:|-2-----------2-2-------2-2-2-2-|
Eb:|-0-----------0-0-3-----0-0-0-0-|
Don't be late..

eb:|-----------------------------------------------------------------|
Bb:|-----------------------------------------------------------------|
F#:|-3-3-3-3-3-3-3-3-3-3-3-3-3-3-3-3-5-5-5-5-5-5-5-5-5-5-5-5-5-5-5-5-|
C#:|-2-2-2-2-2-2-2-2-2-2-2-2-2-2-2-2-4-4-4-4-4-4-4-4-4-4-4-4-4-4-4-4-|
G#:|-3-3-3-3-3-3-3-3-3-3-3-3-3-3-3-3-5-5-5-5-5-5-5-5-5-5-5-5-5-5-5-5-|
Eb:|-----------------------------------------------------------------|
Cause I'm a voodoo child; Lord knows I'm a voodoo child

eb:|-------------3-------|
Bb:|-------------3-------|
F#:|---1-------1---1-1---|
C#:|-2-2-2-2---2---2-2-2-|
G#:|-2-2-2-2-2-2---2-2-2-|
Eb:|-0-0-0-0-3-0---0-0-0-|

Solo 2 (3:58)
eb:|----------------------------------------------------------------|
Bb:|-15b17r15p12-15-15b17-15p12-------------------------------------|
Gb:|----------------------------14-14b16-14b16r14p12-14-14p12----12-|
C#:|----------------------------------------------------------14----|
G#:|----------------------------------------------------------------|
Eb:|----------------------------------------------------------------|

eb:|-------------------------12-15p12----15b17-15-12-15p12-|
Bb:|-------------------15b17----------15-------------------|
Gb:|-14b17-14b16r14p12-------------------------------------|
C#:|-------------------------------------------------------|
G#:|-------------------------------------------------------|
Eb:|-------------------------------------------------------|

eb:|-------------------------------------|
Bb:|-------12-15p12-------12-15p12-15b17-|
Gb:|-14b16----------14b16----------------|
C#:|-------------------------------------|
G#:|-------------------------------------|
Eb:|-------------------------------------|

eb:|-------12-------------------------------------------------|
Bb:|-15b17----15p12-------------------------15b17-------------|
Gb:|----------------14b16-14b16r14p12----14-------14b16r14p12-|
C#:|----------------------------------14----------------------|
G#:|----------------------------------------------------------|
Eb:|----------------------------------------------------------|

eb:|--------------------------------------|
Bb:|--------------------------------------|
Gb:|----14-12~----------------2b4r2p0-----|
C#:|-14--------14-12------------------2-2-|
G#:|-----------------14-12-------------2-|
Eb:|------------------------------------0-|

eb:|---------0-3-3-3-3-|
Bb:|---------0-3-3-3-3-|
F#:|---------1---------|
C#:|-----2-2-2---------|
G#:|-------2-2---------|
Eb:|-0-3---0-0---------|

W/ Wah (3:59)
eb:|-3-3-3-3-3-3-3-3-----3-3-3-3-------3---3-3-3-3-|
Bb:|-3-3-3-3-3-3-3-3-----3-3-3-3-------3---3-3-3-3-|
Gb:|-----------------------------4r2p0-------------|
Db:|-----------------0h2-----------------2---------|
G#:|-------------------------------------2---------|
Eb:|-------------------------------------0---------|

          -------Tremolo picking-------
eb:|-3-3/15-15-15-15-15-15-/15-15-15-15-------------------0-|
Bb:|-3-3/15-15-15-15-15-15-/15-15-15-15---------------------|
Gb:|----------------------------------------0-2b4r2p0-------|
C#:|------------------------------------2-------------2-2---|
G#:|------------------------------------2---------------2---|
Eb:|------------------------------------0-0-------------0---|

eb:|-----------------------------|
Bb:|-----------------------------|
Gb:|---------------0-2b4r2p0-----|
Db:|-2-----0h2-2-------------2-2-|
G#:|-2---------2---------------2-|
Eb:|-0-3b4-----0-0-------------0-|

(4:20)
eb:|---------14--12---------------------------------------------------------|
Bb:|-/12-15---------12-15----12---------------------15----------------------|
Gb:|----------------------14----12-14-12-14-14b16~~~~~~~~~16r14-12-14-12----|
C#:|---------------------------------------------------------------------14-|
G#:|------------------------------------------------------------------------|
Eb:|------------------------------------------------------------------------|

eb:|---------------------------3-3-3-3-3-3-------------|
Bb:|---------------------------3-3-3-3-3-3-------------|
Gb:|---0-2b4r2p0---------------------------2b4r2p0-----|
Db:|-2-----------2-2-2---0h2-----------------------2p0-|
G#:|-2-------------2-2---------------------------------|
Eb:|-0-------------0-0-3-----0-------------------------|

W/ wah
eb:|-3-3-3-3*--3-3-3-3*--------------------20b22b20-|
Bb:|-3-3-3-3*--3-3-3-3*-----------------------------|
Gb:|--------------------2b4*~~~~-14b16*~~-----------|
C#:|------------------------------------------------|
G#:|------------------------------------------------|
Eb:|------------------------------------------------|
* - switch pickups back and forth

eb:|---------------------------0-------------0-|
Bb:|---------------------------0-------------0-|
Gb:|---------------2b4r2p0-------2b4r2p0-------|
Db:|-2-----0h2-------------2-2-----------2-2---|
G#:|-2-----------------------2-------------2---|
Eb:|-0-0-3-------------------0-------------0---|

eb:|-------------0------------------------------0-|
Bb:|-------------0------------------------------0-|
Gb:|-2b4r2p0-------2b4*~~-4r2p0-------------------|
Db:|---------2-2----------------2-2-----0h2-2-2---|
G#:|-----------2------------------2---------2-2---|
Eb:|-----------0------------------0-0-3-----0-0---|
* - switch pickups back and forth

     -------whammy bar---------
eb:|----------------------------------|
Bb:|----------------------------------|
Gb:|-9h12p9-(trill)~~-----------------|
C#:|----------------------------------|
G#:|------------------------------2/9-|
Eb:|------------------------------2/9-|

eb:|---------------------------|
Bb:|---------------------------|
Gb:|-2b4r2p0-----2b4r2p0-------|
C#:|-----------2---------2-2-2-|
G#:|---------2-----------2-2-2-|
Eb:|---------0-----------0-0-0-|
                              Fade out
Composição de Jimi Hendrix
92.863 exibições
    • ½ Tom
    • A
    • Bb
    • B
    • C
    • Db
    • D
    • Eb
    • E
    • F
    • F#
    • G
    • Ab
  • Adicionar à lista

    0 comentários

    Ver todos os comentários

    Conseguiu tocar?

    16 Tocaram 1 Ainda não

    Grave um vídeo tocando Voodoo Child e nos envie!

    00:00 / 00:00
    outros vídeos desta música
    repetir qualidade Automático
    Outros vídeos desta música
    00:00 / 00:00
    Automático

    Cifra Club Pro

    Aproveite o Cifra Club com benefícios exclusivos e sem anúncios
    Cifra Club Pro
    Aproveite o Cifra Club com benefícios exclusivos e sem anúncios
    OK