Cifra Club

Aprenda

Ice

Jimmy Page

Cifra: Principal (violão e guitarra)
tom: D
|-----------5h10p5-------------------------------------------
|------------------------------------------------------------
|---------7-------------------------2-----0------------------
|---------7----------------9p7--0-0---0-0--0---0h2p0---------  (10x)
|---------5--------------5-----------------------------------
|---6-6-6----------7/5-3-------------------------------320---

|--20b20b-17-16-15-12^--------------------------18b/16-----17-------22b---
|-----------------------------------------------16b/14-/16----16-16-------
|-----------------------------------------12h16---------------------------
|-----------------------------------12h13---------------------------------
|-----------------------------12h15---------------------------------------
|-----------------------12h14----------------------------------------------

(solo)
|------15h18h20p15h18p20x9-20b-16-17-18-0-0-0-0-x-x-x-x-13-15-16-17-12-13b--
|---------------------------------------------------------------------------
|---------------------------------------------------------------------------
|---------------------------------------------------------------------------
|---------------------------------------------------------------------------
|---22b---------------------------------------------------------------------

|---12b12-15-17b-19-20-22-11-12-10-9-5/4-7-78-9-2-0-08-9------------20---
|---17b-------------------------------------------------------------19---
|-----------------------------------------------------------------18-----
|--------------------------------------------------------------17--------
|-----------------------------------------------------------16-----------
|---------------------------------------------------------15-------------

Composição de Jimmy Page
Colaboração e revisão:
  • jvf
573 exibições
    • ½ Tom
    • A
    • Bb
    • B
    • C
    • Db
    • D
    • Eb
    • E
    • F
    • F#
    • G
    • Ab
  • Adicionar à lista

    0 comentários

    Ver todos os comentários

    Conseguiu tocar?

    0 Tocaram 0 Ainda não

    Grave um vídeo tocando Ice e nos envie!

    00:00 / 00:00
    outros vídeos desta música
    repetir qualidade Automático
    Outros vídeos desta música
    00:00 / 00:00
    Automático

    Cifra Club Pro

    Aproveite o Cifra Club com benefícios exclusivos e sem anúncios
    Cifra Club Pro
    Aproveite o Cifra Club com benefícios exclusivos e sem anúncios
    OK