Cifra Club

Fogo de Amor

João Paulo e Daniel

Cifra: Principal (violão e guitarra)
Selo Cifra Club: esta cifra foi revisada para atender aos critérios oficiais da nossa Equipe de Qualidade.
tom: C
[Intro] C  F  G7  F
        C  F  G7  F
        C  Am  Dm  G7
        C  Am  Dm  G7

( C  F  G7  F)

E|--0-0-1-1-1-1-1-1-1-1-1-----------------|
B|--1-1-1-1-1-0-0-0-1-1-1-----------------|
G|--0-0-2-2-2-0-0-0-2-2-2-----------------|
D|--2-2-3-3-3-0-0-0-3-3-3-----------------|
A|--3-3-3-3-3-2-2-2-3-3-3-----------------|
E|------1-1-1-3-3-3-1-1-1-----------------|

   C   F        G7    F     C
E|----------------------------------------|
B|----------------------------------------|
G|--9--7--5-------------------------------|
D|-----------5--7--7--9--9--10------------|
A|----------------------------------------|
E|----------------------------------------|

   C  Am       Dm    G7
E|----------------------------------------|
B|-----------5--6--5--3-------------------|
G|--------5-------------------------------|
D|--5--7----------------------------------|
A|----------------------------------------|
E|----------------------------------------|

C        F       G7
 Ela arrepia meu corpo
       F        C
Quando olha pra mim
        F         G7
Eu ando a mil por hora
   F        C
Eu estou a fim
            F          G7
De abrir as portas pra ela
    F       C
Do meu coração
           F         G7
Deixar meu corpo no seu
      F         C
Descobrir a paixão
         F           G7
Ela tem charme, é bonita
      F         C
E tem fogo de amor
         F          G7
Quero provar do seu beijo
    F         C
Sentir seu calor
            F        G7
Não dá mais pra segurar
                Am
Esse desejo em mim
                  G7
A ela vou me entregar

           C       F           G7
Quando o amor é de dentro pra fora
        F           C
A gente tem que assumir
        F          G7
A gente ama, se enrola
      F      C  F G7 F
E não tá nem aí

           C       F           G7
Quando o amor é de dentro pra fora
        F           C
A gente tem que assumir
        F          G7
A gente ama, se enrola
      F      C  F G7 F
E não tá nem aí

[Refrão]
             C    F   G7
A ela vou me entregar
            F        C   F  G7
Não da mais pra segurar

( C  F  G7  F  C )
( C  Am  Dm  G7 
)
E|----------------------------------------|
B|----------------------------------------|
G|--9--7--5-------------------------------|
D|-----------5--7--7--9--9--10------------|
A|----------------------------------------|
E|----------------------------------------|

( C  Am  Dm  G7)

E|----------------------------------------|
B|-----------5--6--5--3-------------------|
G|--------5-------------------------------|
D|--5--7----------------------------------|
A|----------------------------------------|
E|----------------------------------------|

C        F       G7
 Ela arrepia meu corpo
       F        C
Quando olha pra mim
        F         G7
Eu ando a mil por hora
   F        C
Eu estou a fim
            F          G7
De abrir as portas pra ela
    F       C
Do meu coração
           F         G7
Deixar meu corpo no seu
      F         C
Descobrir a paixão
         F           G7
Ela tem charme, é bonita
      F         C
E tem fogo de amor
         F          G7
Quero provar do seu beijo
    F         C
Sentir seu calor
            F        G7
Não dá mais pra segurar
                Am
Esse desejo em mim
                  G7
A ela vou me entregar

           C       F           G7
Quando o amor é de dentro pra fora
        F           C
A gente tem que assumir
        F          G7
A gente ama, se enrola
      F      C  F G7 F
E não tá nem aí
           C       F           G7
Quando o amor é de dentro pra fora
        F           C
A gente tem que assumir
        F          G7
A gente ama, se enrola
      F      C  F G7 F
E não tá nem aí

             C    F   G7
A ela vou me entregar
            F        C   F  G7
Não da mais pra segurar
             C    F   G7
A ela vou me entregar
            F        C   F  G7
Não da mais pra segurar
             C    F   G7
A ela vou me entregar
            F        C   F  G7
Não da mais pra segurar
             C    F   G7
A ela vou me entregar
            F        C   F  G7
Não da mais pra segurar
Outros vídeos desta música
80.737 exibições
    • ½ Tom
    • A
    • Bb
    • B
    • C
    • Db
    • D
    • Eb
    • E
    • F
    • F#
    • G
    • Ab
  • Adicionar à lista

Afinação da cifra

Afinador online

    0 comentários

    Ver todos os comentários

    Entre para o Cifra Club PRO

    Tenha acesso a benefícios exclusivos no App e no Site

    • Chega de anúncios

    • Mais recursos no app do Afinador

    • Atendimento Prioritário

    • Aumente seu limite de lista

    • Ajude a produzir mais conteúdo

    Cifra Club Pro

    Aproveite o Cifra Club com benefícios exclusivos e sem anúncios
    Cifra Club Pro
    Aproveite o Cifra Club com benefícios exclusivos e sem anúncios
    OK