Cifra Club

Embedded

Job For A Cowboy

Cifra: Principal (violão e guitarra)
exibições 514
Tom: E
Tuning: Drop B

Key: 

     P = Pull off
     H = Hammer On

*Note*: Not sure if the Tuning is right but it sounds pretty close with this tab.

                     From:00:57-1:06   
C.|--------------------------------------------------------|
G.|--------------------------------------------------------|
E||--------------------------------------------------------|
B||-7-6----7-------------------7-6----7--------------------|
F.|----------4-5---5h7p5-4--------------4-5----7---8-------|
B||------------------------------------------7-7-8-8-------|
                           
                     From:02:29-2:50 
                           (x3)
C.|--------------------------------------------------------|
G.|--------------------------------------------------------|
E||--------------------------------------------------------|
B||-7-6----7-------------------7-6----7--------------------|
F.|----------4-5---5h7p5-4--------------4-5---5h7p5--------|
B||--------------------------------------------------------|
Acordes para:
    Composição: Job For A Cowboy Colaboração e revisão:
    • Élison Duarte

    0 comentários

    mostrar mais comentários

    Conseguiu tocar?

    0 tocaram 0 ainda não

    Grave um vídeo tocando Embedded e mande pra gente!

    00:00 / 00:00
    outros vídeos desta música
    repetir qualidade Automático
    Outros vídeos desta música
    00:00 / 00:00
    Automático
    OK