Cifra Club

Inseparable

Joe Jonas

Cifra: Principal (violão e guitarra)
tom: G
Intro:
E|----------------------------------------------------------------------|
B|----------------------------------------------------------------------|
G|--14-----13-----14-----14--14-----13---------(Kevin's)----(PS idk)----|
D|--14-----13-----14-----14--14-----13----------(Part)-----(Kev's Part)-|
A|--12-x8--11-x3--12-x5--12--12-x3--11-x4-------------------------------|
E|----------------------------------------------------------------------|

E|-----------------------------------------|
B|-----------------------------------------|
G|--14-14----13-----14-----14--14--14--13--|
D|--14-14----13-----14-----14--14--14--13--|
A|--12-12-x3-11-x4--12-x4--12--12--12--11--|
E|-----------------------------------------|

Verso:
E|---------------------------------------------------------------------------|
B|---------------------------------------------------------------------------|
G|---------6-------------8---------------6-------------8---------------------|
D|--3------6-x12--6------8-x12----3------6-x12--6------8-x12-----------------|
A|--3-x12--4------6-x12--6--------3-x12--4------6-x12--6---------------------|
E|--1-------------4---------------1-------------4----------------------------|
PM{ .      .      .      .        .      .      .      . }

Refrão:
E|---------------------------------------------------------------------------|
B|---------------------------------------------------------------------------|
G|--------------------6---------------------------6------8-------------------|
D|--8-----3-----4-----6-x16-----8-----3-----4-----6-x16--8-x8----------------|
A|--8-x16-3-x16-4-x16-4---------8-x16-3-x16-4-x16-4------6-------------------|
E|--6-----1-----2---------------6-----1-----2--------------------------------|

Ponte:
E|---------------------------------------------------------------------------|
B|---------------------------------------------------------------------------|
G|---------6-------------8---------------6-------------8---------------------|
D|--3------6-x16--6------8-x16----3------6-x16--6------8-x1------------------|
A|--3-x16--4------6-x16--6--------3-x16--4------6-x16--6---------------------|
E|--1-------------4---------------1-------------4----------------------------|

Solo:
E|---------------------------------------------------------------------------|
B|---------------------------------------------------------------------------|
G|--/13-13-13-13-13-13-13-13-12-12-12-12-13-13-13-13-------------------------|
D|---------------------------------------------------------------------------|  (2x)
A|---------------------------------------------------------------------------|
E|---------------------------------------------------------------------------|

E|---------------------------------------------------------------------------|
B|---------------------------------------------------------------------------|
G|--/17-17-17-17-17-17-17-17--18-18-18-18-18-18-18-18------------------------|
D|---------------------------------------------------------------------------|  (2x)
A|---------------------------------------------------------------------------|
E|---------------------------------------------------------------------------|
Compositor não encontrado.
Colaboração e revisão:
  • alice correa
317 exibições
    • ½ Tom
    • A
    • Bb
    • B
    • C
    • Db
    • D
    • Eb
    • E
    • F
    • F#
    • G
    • Ab
  • Adicionar à lista

    0 comentários

    Ver todos os comentários

    Conseguiu tocar?

    0 Tocaram 0 Ainda não

    Grave um vídeo tocando Inseparable e nos envie!

    00:00 / 00:00
    Outros vídeos desta música
    Repetir Qualidade Automático
    Outros vídeos desta música
    00:00 / 00:00
    Automático

    Cifra Club Pro

    Aproveite o Cifra Club com benefícios exclusivos e sem anúncios
    Cifra Club Pro
    Aproveite o Cifra Club com benefícios exclusivos e sem anúncios
    OK