Cifra Club

Tonight

Joe Jonas

Cifra: Principal (violão e guitarra)
tom: C
Intro / Verso:
   Am7               F                C              G
E|---------3-----------------1-----------------------------------------------|
B|------1----1---------1--------0---------1-3--1-------1-----3--1------------|
G|--2---------------------------------0--------------------------------------|   (5x)
D|-------------------3-----3-------------------------0-----0-----------------|
A|---------------------------------------------------------------------------|
E|---------------------------------------------------------------------------|

Pré-Refrão:
   F5                G5
E|---------------------------------------------------------------------------|
B|---------------------------------------------------------------------------|
G|---------------------------------------------------------------------------|
D|-3-3-3-3-3-3-3-3---5-5-5-5-5-----------------------------------------------|
A|-3-3-3-3-3-3-3-3---5-5-5-5-5-----------------------------------------------|
E|-1-1-1-1-1-1-1-1---3-3-3-3-3-----------------------------------------------|

Refrão:
  F5   C5   G5   A5  (2x)      F5   C5   A5   G5      F5 (8x) G5 (5x)
E|---------------------------------------------------------------------------|
B|---------------------------------------------------------------------------|
G|-----5----------------------------5----------------------------------------|
D|-3---5----5----7-------------3----5----7----5-------3------5---------------|
A|-3---3----5----7-------------3----3----7----5-------3------5---------------|
E|-1--------3----5-------------1---------5----3-------1------3---------------|

(Intro e Verso)

Refrão:    
    F5
E|--------------------------------------------------------------------------|
B|--------------------------------------------------------------------------|
G|--------------------------------------------------------------------------|
D|--3-3-3-3-3-3-3-3---------------------------------------------------------|
A|--3-3-3-3-3-3-3-3---------------------------------------------------------|
E|--1-1-1-1-1-1-1-1---------------------------------------------------------|

(Solo)

   F5   C5   G5   A5    F5        G5
E|------------------------------------------------|
B|------------------------------------------------|
G|------5-----------------------------------------|
D|-3----5----5----7-----3---------5---------------|   (2x)
A|-3----3----5----7-----3---------5---------------|
E|-1---------3----5-----1---------3---------------|

(Refrão)

Outro:
   F5   C5   A5   G5      F5 (8x) G5 (5x)  F E G C A F
E|----------------------------------------------------|
B|----------------------------------------------------|
G|------5--------------------------------------5------|
D|-3----5----7----5-------3------5-------3-2-5-5-7-3--|
A|-3----3----7----5-------3------5-------3-2-5-3-7-3--|
E|-1---------5----3-------1------3-------1-0-3---5-1--|

Compositor não encontrado.
Colaboração e revisão:
  • alice correa
530 exibições
    • ½ Tom
    • A
    • Bb
    • B
    • C
    • Db
    • D
    • Eb
    • E
    • F
    • F#
    • G
    • Ab
  • Adicionar à lista

    0 comentários

    Ver todos os comentários

    Conseguiu tocar?

    0 Tocaram 0 Ainda não

    Grave um vídeo tocando Tonight e nos envie!

    00:00 / 00:00
    Outros vídeos desta música
    Repetir Qualidade Automático
    Outros vídeos desta música
    00:00 / 00:00
    Automático

    Cifra Club Pro

    Aproveite o Cifra Club com benefícios exclusivos e sem anúncios
    Cifra Club Pro
    Aproveite o Cifra Club com benefícios exclusivos e sem anúncios
    OK