Cifra Club

Cryin'

Joe Satriani

Cifra: Principal
exibições 69.164
Tom: D
Primeira Parte:

E|----------------------------------------------------|
B|-b9r7p5--7b9r7b9r7p5--------5~----------------------|
G|----------------------6-4-6-----6-4-----------------|
D|----------------------------------------------------|
A|----------------------------------------------------|
E|----------------------------------------------------|

E|----------------------------------------------------|
B|-b9r7p5--7b9r7b9r7p5--------------------------------|
G|----------------------/6~--6/9\4~-------------------|
D|----------------------------------------------------|
A|----------------------------------------------------|
E|----------------------------------------------------|

E|----------------------------------------------------|
B|-b9r7p5--7b9r7b9r7p5--------5~----------------------|
G|----------------------6p4-6-----6-4-----------------|
D|----------------------------------------------------|
A|----------------------------------------------------|
E|----------------------------------------------------|

E|----------------------------------------------------|
B|----------------------------------------------------|
G|-/8~\4~/6/9\6~\4~-----------------------------------|
D|----------------------------------------------------|
A|----------------------------------------------------|
E|----------------------------------------------------|

E|----------------------------------------------------|
B|-b21r19p17--19b21r19b21r19p17------------17~--------|
G|-------------------------------18-16-18--------18-16|
D|----------------------------------------------------|
A|----------------------------------------------------|
E|----------------------------------------------------|

E|-----------19--19~--19b21~-r19~---------------------|
B|-b21r19p17------------------------------------------|
G|----------------------------------------------------|
D|----------------------------------------------------|
A|----------------------------------------------------|
E|----------------------------------------------------|

E|----------------------------------------------------|
B|-b21r19p17-19b21r19b21r19p17------------17~-17------|
G|------------------------------18-16-18---------18-16|
D|----------------------------------------------------|
A|----------------------------------------------------|
E|----------------------------------------------------|

E|----------------------------------------------------|
B|-16------14/17\14~~---------------------------------|
G|-----16---------------------------------------------|
D|----------------------------------------------------|
A|----------------------------------------------------|
E|----------------------------------------------------|


Segunda Parte:

E|-----17b19------17b19-------------------------------|
B|-17---------17---------16~-17~----------------------|
G|----------------------------------------------------|
D|----------------------------------------------------|
A|----------------------------------------------------|
E|----------------------------------------------------|

E|-----16b17r16---------------------------------------|
B|-17------------17b19r17--17b19~~r17~----------------|
G|----------------------------------------------------|
D|----------------------------------------------------|
A|----------------------------------------------------|
E|----------------------------------------------------|

E|-----17b19------17b19-------------------------------|
B|-17---------17---------16~-17~----------------------|
G|----------------------------------------------------|
D|----------------------------------------------------|
A|----------------------------------------------------|
E|----------------------------------------------------|

E|-----19b21r19--16b17r16-----------------------------|
B|-17----------------------17b19r17-17b19~~-----------|
G|----------------------------------------------------|
D|----------------------------------------------------|
A|----------------------------------------------------|
E|----------------------------------------------------|


Terceira Parte:

   P.M     . . . .              . . .
E|----------------------------------------------------|
B|----------------------------------------------------|
G|----------------------------------------------------|
D|-----2~--4-2-4-2-4b6r4p2------------2~--------------|
A|-2-4----------------------x-x-4-2-4-----4-2---------|
E|--------------------------------------------2b3r2p0-|

   P.M
E|----------------------------------------------------|
B|----------------------------------------------------|
G|----------------------------------------------------|
D|-----2~--4-2-x-x-4b6r4p2----------------------------|
A|-2-4----------------------x-x-2/4~/7~\2~~-----------|
E|----------------------------------------------------|

   P.M     . .                . . .       P.M
E|----------------------------------------------------|
B|----------------------------------------------------|
G|----------------------------------------------------|
D|-----2~--4-2-x-x-4b6r4p2--x-------2~--2-------------|
A|-2-4------------------------4-2-4-------4-2---------|
E|----------------------------------------------------|

   P.M .
E|---------------------------------9------------------|
B|-----------------------------------12---------------|
G|------------------4-4~-6-4-11b13------11b13r11p9-11-|
D|-------2~-4p2-4/6-----------------------------------|
A|-4-2-4----------------------------------------------|
E|----------------------------------------------------|

E|----------------------------------------------------|
B|---12b14~~------------------------------------------|
G|-9--------------------------------------------------|
D|----------------------------------------------------|
A|----------------------------------------------------|
E|----------------------------------------------------|


Quarta Parte:

E|-----17b19~-----17b19~------------------------------|
B|-17---------17---------16~-17~----------------------|
G|----------------------------------------------------|
D|----------------------------------------------------|
A|----------------------------------------------------|
E|----------------------------------------------------|

E|-----16b17r16~--------------------------------------|
B|-17------------17b19r17--17b19~~r17~----------------|
G|--------------------------------------16/18\16/18~--|
D|----------------------------------------------------|
A|----------------------------------------------------|
E|----------------------------------------------------|

E|-----17b19------17b19-------------------------------|
B|-17---------17---------16~-17~----------------------|
G|----------------------------------------------------|
D|----------------------------------------------------|
A|----------------------------------------------------|
E|----------------------------------------------------|

E|----19b21r19--16b17r16------------------------------|
B|-17---------------------17b19r17-17b19~~--17p15-17b-|
G|----------------------------------------------------|
D|----------------------------------------------------|
A|----------------------------------------------------|
E|----------------------------------------------------|


Passagem:

E|-/15-12----------------------------------12---------|
B|--------15-12-------------------------12----15------|
G|--------------14b16r14p12----12-14b16----------14p12|
D|--------------------------14------------------------|
A|----------------------------------------------------|
E|----------------------------------------------------|

E|----------------------------------------------------|
B|----------------------------------------------------|
G|-14-12-14~--p12-----------14b15r14p12----12-14b16~~-|
D|----------------14-12-----------------14------------|
A|----------------------------------------------------|
E|----------------------------------------------------|


Quinta Parte:

E|----------------------------------------------------|
B|--------------------/12-11~--12-12~---12/14-14~--12-|
G|--------------11-13---------------------------------|
D|-----11-13/14---------------------------------------|
A|----------------------------------------------------|
E|-/9~------------------------------------------------|

E|----------------------------------------------------|
B|----------------------------------------------------|
G|-13b15r13~--11\9--9/11~---8b9r8b9r8-----------------|
D|------------------------------------9/11~-----------|
A|----------------------------------------------------|
E|----------------------------------------------------|

E|-------------------------------------------11--12---|
B|----------------/12-11~--12-12~--12/14-14-----------|
G|-------9/11-13--------------------------------------|
D|-11/13----------------------------------------------|
A|----------------------------------------------------|
E|----------------------------------------------------|

E|-14b16r14p12-14~~-----------------------------------|
B|----------------------------------------------------|
G|----------------------------------------------------|
D|----------------------------------------------------|
A|----------------------------------------------------|
E|----------------------------------------------------|

E|-11h12p11\9h11p7h9~~--------------------------------|
B|----------------------------------------------------|
G|----------------------8h9p8\6h9-8\6p4h6~~-----------|
D|----------------------------------------------------|
A|----------------------------------------------------|
E|----------------------------------------------------|

E|----------------------------------------------------|
B|----------------------------------------------------|
G|-6-8-9-6-8~--4-6~-----------------------------------|
D|-------------------9-7~--6-4~--6~-4h6p4\2-----------|
A|----------------------------------------------------|
E|----------------------------------------------------|

E|----------------------------------------------------|
B|----------------------------------------------------|
G|----------------------------------------------------|
D|-------2h4h6-p4p2-----------------------------------|
A|-2h4h6------------6p4p2-----------------------------|
E|------------------------4p2p0-----------------------|


Quinta Parte:

E|----------------------------------------------------|
B|-b9r7p5--7b9r7b9r7p5--------5~----------------------|
G|----------------------6-4-6-----6-4-----------------|
D|----------------------------------------------------|
A|----------------------------------------------------|
E|----------------------------------------------------|

E|----------------------------------------------------|
B|-7-b9r7p5--7b9r7b9r7p5------------------------------|
G|-----------------------x-x-4~-----------------------|
D|----------------------------------------------------|
A|----------------------------------------------------|
E|----------------------------------------------------|

E|----------------------------------------------------|
B|-7-b9r7p5--7b9r7b9r7p5--------5~--------------------|
G|------------------------6-4-6-----6-4---------------|
D|----------------------------------------------------|
A|----------------------------------------------------|
E|----------------------------------------------------|

E|----------------------------------------------------|
B|----------------------------------------------------|
G|-/8~\4~/6/9\6~--------------------------------------|
D|----------------------------------------------------|
A|----------------------------------------------------|
E|----------------------------------------------------|

E|-----17b19~-----17b19~------------------------------|
B|-17---------17---------16~-17~----------------------|
G|----------------------------------------------------|
D|----------------------------------------------------|
A|----------------------------------------------------|
E|----------------------------------------------------|

E|-----16b17r16---------------------------------------|
B|-17------------17b19r17--17b19~~r17~----------------|
G|----------------------------------------------------|
D|----------------------------------------------------|
A|----------------------------------------------------|
E|----------------------------------------------------|

E|-----17b19~-----17b19~------------------------------|
B|-17---------17---------16~-17~----------------------|
G|----------------------------------------------------|
D|----------------------------------------------------|
A|----------------------------------------------------|
E|----------------------------------------------------|

E|----19b21r19--16b17r16------------------------------|
B|-17---------------------17b19r17-17b19~-------------|
G|----------------------------------------------------|
D|----------------------------------------------------|
A|----------------------------------------------------|
E|----------------------------------------------------|

E|----------------------------------------------------|
B|----------------------------------------------------|
G|-9--------------------------------------------------|
D|-9h11p9---------------------------------------------|
A|--------11-11\9-7---7~------------------------------|
E|------------------9---------------------------------|

E|-----17b19~-----17b19~------------------------------|
B|-17---------17---------16~-17~----------------------|
G|----------------------------------------------------|
D|----------------------------------------------------|
A|----------------------------------------------------|
E|----------------------------------------------------|

E|-----16b17r16---------------------------------------|
B|-17------------17b19r17--17b19~~r17~~---------------|
G|----------------------------------------------------|
D|----------------------------------------------------|
A|----------------------------------------------------|
E|----------------------------------------------------|

E|----------------------------------------------------|
B|-b19r17b19r17b19b21r17~~----------------------------|
G|----------------------------------------------------|
D|----------------------------------------------------|
A|----------------------------------------------------|
E|----------------------------------------------------|

E|-----17b19~-----17b19~------------------------------|
B|-17---------17---------16~-17~----------------------|
G|----------------------------------------------------|
D|----------------------------------------------------|
A|----------------------------------------------------|
E|----------------------------------------------------|

E|----19b21r19--19b21r19r17-19~~----------------------|
B|-17----------------------------19b21r19p17-19~~-----|
G|----------------------------------------------------|
D|----------------------------------------------------|
A|----------------------------------------------------|
E|----------------------------------------------------|

E|----------------------------------------------------|
B|-17-15-17~\-----------------------------------------|
G|----------------------------------------------------|
D|----------------------------------------------------|
A|----------------------------------------------------|
E|----------------------------------------------------|


Sexta Parte:

E|-3p0---0--------------------------------------------|
B|-----3---3br~p0-------------------------------------|
G|----------------2br2p0-2~~p0------2b4r2p0-2b4~------|
D|-----------------------------2p0--------------------|
A|----------------------------------------------------|
E|----------------------------------------------------|

E|-0-3p0----------------------------------------------|
B|-------3p0------------------------------------------|
G|-----------4-2p0------------------------------------|
D|-----------------2p0--------------------------------|
A|---------------------2------------------------------|
E|-----------------------3-0--------------------------|

E|----------------------------------------------------|
B|------5---5-8p5---5~/--15---------------------------|
G|--------7-------7---------b16r14p12-14b16~----------|
D|----------------------------------------------------|
A|-/5~------------------------------------------------|
E|----------------------------------------------------|

E|----------------------------------------------------|
B|-15-------15-15-------------------------------------|
G|----14b16-------14b16r14p12-14b16~~-----------------|
D|----------------------------------------------------|
A|----------------------------------------------------|
E|----------------------------------------------------|

E|-17b19r17b--17b19--17b19-17b19~~--------------------|
B|-----------------------------------17b20~~----------|
G|----------------------------------------------------|
D|----------------------------------------------------|
A|----------------------------------------------------|
E|----------------------------------------------------|

E|-------------------------------------19b21-19-19~---|
B|-15-------------------------------------------------|
G|----16\14p12----------12----------------------------|
D|-------------14p12-14----14~~-----------------------|
A|----------------------------------------------------|
E|----------------------------------------------------|

E|-19b22--19b22--19b22--19~---21b24~~---21b24~~-------|
B|----------------------------------------------------|
G|----------------------------------------------------|
D|----------------------------------------------------|
A|----------------------------------------------------|
E|----------------------------------------------------|

E|-/15-12----15b17~~r---15b17r15~~--------------------|
B|--------15------------------------------------------|
G|----------------------------------------------------|
D|----------------------------------------------------|
A|----------------------------------------------------|
E|----------------------------------------------------|

E|-12-------12-15p12-------12-------------------------|
B|----15b17----------15b17----15p12-------------------|
G|----------------------------------14b15r14p12-------|
D|----------------------------------------------14-12-|
A|----------------------------------------------------|
E|----------------------------------------------------|

E|----------------------------------------------------|
B|----------------------------------------------------|
G|----------------------------------------------------|
D|-12~~b\---------------------------------------------|
A|----------------------------------------------------|
E|----------------------------------------------------|
Acordes para:
    Composição: Joe SatrianiColaboração e revisão:
    • Vinícius Dias
    • Caetano Sauer

    0 comentários

      mostrar mais comentários

      Conseguiu tocar?

      6tocaram0ainda não

      Grave um vídeo tocando Cryin' e mande pra gente!

      00:00 / 00:00
      outros vídeos desta música
      repetirqualidadeautomática
      Outro vídeos desta música
        00:00 / 00:00
        automática
        Capítulos
        • Início
        • Tocando a música
        • Tocando Primeira Parte
        • Ensinando Primeira Parte
        • Tocando Segunda Parte
        • Ensinando Segunda Parte
        • Tocando Terceira Parte
        • Ensinando Terceira Parte
        • Tocando Quarta Parte e Passagem
        • Ensinando Quarta Parte
        • Ensinando Passagem
        • Tocando Quinta Parte
        • Ensinando Quinta Parte
        • Tocando Sexta Parte
        • Ensinando Sexta Parte
        • Tocando Sétima Parte
        • Ensinando Sétima Parte
        • Encerramento
        OK