Notificações Amigos pendentes

      Joe Satriani

      Cryin'

      64.664 exibições
      Tom: D
      Primeira Parte:
      
      
      E|----------------------------------------------------|
      B|-b9r7p5--7b9r7b9r7p5--------5~----------------------|
      G|----------------------6-4-6-----6-4-----------------|
      D|----------------------------------------------------|
      A|----------------------------------------------------|
      E|----------------------------------------------------|
      
      
      E|----------------------------------------------------|
      B|-b9r7p5--7b9r7b9r7p5--------------------------------|
      G|----------------------/6~--6/9\4~-------------------|
      D|----------------------------------------------------|
      A|----------------------------------------------------|
      E|----------------------------------------------------|
      
      
      E|----------------------------------------------------|
      B|-b9r7p5--7b9r7b9r7p5--------5~----------------------|
      G|----------------------6p4-6-----6-4-----------------|
      D|----------------------------------------------------|
      A|----------------------------------------------------|
      E|----------------------------------------------------|
      
      
      E|----------------------------------------------------|
      B|----------------------------------------------------|
      G|-/8~\4~/6/9\6~\4~-----------------------------------|
      D|----------------------------------------------------|
      A|----------------------------------------------------|
      E|----------------------------------------------------|
      
      
      E|----------------------------------------------------|
      B|-b21r19p17--19b21r19b21r19p17------------17~--------|
      G|-------------------------------18-16-18--------18-16|
      D|----------------------------------------------------|
      A|----------------------------------------------------|
      E|----------------------------------------------------|
      
      
      E|-----------19--19~--19b21~-r19~---------------------|
      B|-b21r19p17------------------------------------------|
      G|----------------------------------------------------|
      D|----------------------------------------------------|
      A|----------------------------------------------------|
      E|----------------------------------------------------|
      
      
      E|----------------------------------------------------|
      B|-b21r19p17-19b21r19b21r19p17------------17~-17------|
      G|------------------------------18-16-18---------18-16|
      D|----------------------------------------------------|
      A|----------------------------------------------------|
      E|----------------------------------------------------|
      
      
      E|----------------------------------------------------|
      B|-16------14/17\14~~---------------------------------|
      G|-----16---------------------------------------------|
      D|----------------------------------------------------|
      A|----------------------------------------------------|
      E|----------------------------------------------------|
      
      
      
      Segunda Parte:
      
      
      E|-----17b19------17b19-------------------------------|
      B|-17---------17---------16~-17~----------------------|
      G|----------------------------------------------------|
      D|----------------------------------------------------|
      A|----------------------------------------------------|
      E|----------------------------------------------------|
      
      
      E|-----16b17r16---------------------------------------|
      B|-17------------17b19r17--17b19~~r17~----------------|
      G|----------------------------------------------------|
      D|----------------------------------------------------|
      A|----------------------------------------------------|
      E|----------------------------------------------------|
      
      
      E|-----17b19------17b19-------------------------------|
      B|-17---------17---------16~-17~----------------------|
      G|----------------------------------------------------|
      D|----------------------------------------------------|
      A|----------------------------------------------------|
      E|----------------------------------------------------|
      
      
      E|-----19b21r19--16b17r16-----------------------------|
      B|-17----------------------17b19r17-17b19~~-----------|
      G|----------------------------------------------------|
      D|----------------------------------------------------|
      A|----------------------------------------------------|
      E|----------------------------------------------------|
      
      
      
      Terceira Parte:
      
         P.M     . . . .              . . .
      
      E|----------------------------------------------------|
      B|----------------------------------------------------|
      G|----------------------------------------------------|
      D|-----2~--4-2-4-2-4b6r4p2------------2~--------------|
      A|-2-4----------------------x-x-4-2-4-----4-2---------|
      E|--------------------------------------------2b3r2p0-|
      
      
         P.M
      
      E|----------------------------------------------------|
      B|----------------------------------------------------|
      G|----------------------------------------------------|
      D|-----2~--4-2-x-x-4b6r4p2----------------------------|
      A|-2-4----------------------x-x-2/4~/7~\2~~-----------|
      E|----------------------------------------------------|
      
      
         P.M     . .                . . .       P.M
      
      E|----------------------------------------------------|
      B|----------------------------------------------------|
      G|----------------------------------------------------|
      D|-----2~--4-2-x-x-4b6r4p2--x-------2~--2-------------|
      A|-2-4------------------------4-2-4-------4-2---------|
      E|----------------------------------------------------|
      
      
         P.M .
      
      E|---------------------------------9------------------|
      B|-----------------------------------12---------------|
      G|------------------4-4~-6-4-11b13------11b13r11p9-11-|
      D|-------2~-4p2-4/6-----------------------------------|
      A|-4-2-4----------------------------------------------|
      E|----------------------------------------------------|
      
      
      E|----------------------------------------------------|
      B|---12b14~~------------------------------------------|
      G|-9--------------------------------------------------|
      D|----------------------------------------------------|
      A|----------------------------------------------------|
      E|----------------------------------------------------|
      
      
      
      Quarta Parte:
      
      
      E|-----17b19~-----17b19~------------------------------|
      B|-17---------17---------16~-17~----------------------|
      G|----------------------------------------------------|
      D|----------------------------------------------------|
      A|----------------------------------------------------|
      E|----------------------------------------------------|
      
      
      E|-----16b17r16~--------------------------------------|
      B|-17------------17b19r17--17b19~~r17~----------------|
      G|--------------------------------------16/18\16/18~--|
      D|----------------------------------------------------|
      A|----------------------------------------------------|
      E|----------------------------------------------------|
      
      
      E|-----17b19------17b19-------------------------------|
      B|-17---------17---------16~-17~----------------------|
      G|----------------------------------------------------|
      D|----------------------------------------------------|
      A|----------------------------------------------------|
      E|----------------------------------------------------|
      
      
      E|----19b21r19--16b17r16------------------------------|
      B|-17---------------------17b19r17-17b19~~--17p15-17b-|
      G|----------------------------------------------------|
      D|----------------------------------------------------|
      A|----------------------------------------------------|
      E|----------------------------------------------------|
      
      
      
      Passagem:
      
      
      E|-/15-12----------------------------------12---------|
      B|--------15-12-------------------------12----15------|
      G|--------------14b16r14p12----12-14b16----------14p12|
      D|--------------------------14------------------------|
      A|----------------------------------------------------|
      E|----------------------------------------------------|
      
      
      E|----------------------------------------------------|
      B|----------------------------------------------------|
      G|-14-12-14~--p12-----------14b15r14p12----12-14b16~~-|
      D|----------------14-12-----------------14------------|
      A|----------------------------------------------------|
      E|----------------------------------------------------|
      
      
      
      Quinta Parte:
      
      
      E|----------------------------------------------------|
      B|--------------------/12-11~--12-12~---12/14-14~--12-|
      G|--------------11-13---------------------------------|
      D|-----11-13/14---------------------------------------|
      A|----------------------------------------------------|
      E|-/9~------------------------------------------------|
      
      
      E|----------------------------------------------------|
      B|----------------------------------------------------|
      G|-13b15r13~--11\9--9/11~---8b9r8b9r8-----------------|
      D|------------------------------------9/11~-----------|
      A|----------------------------------------------------|
      E|----------------------------------------------------|
      
      
      E|-------------------------------------------11--12---|
      B|----------------/12-11~--12-12~--12/14-14-----------|
      G|-------9/11-13--------------------------------------|
      D|-11/13----------------------------------------------|
      A|----------------------------------------------------|
      E|----------------------------------------------------|
      
      
      E|-14b16r14p12-14~~-----------------------------------|
      B|----------------------------------------------------|
      G|----------------------------------------------------|
      D|----------------------------------------------------|
      A|----------------------------------------------------|
      E|----------------------------------------------------|
      
      
      E|-11h12p11\9h11p7h9~~--------------------------------|
      B|----------------------------------------------------|
      G|----------------------8h9p8\6h9-8\6p4h6~~-----------|
      D|----------------------------------------------------|
      A|----------------------------------------------------|
      E|----------------------------------------------------|
      
      
      E|----------------------------------------------------|
      B|----------------------------------------------------|
      G|-6-8-9-6-8~--4-6~-----------------------------------|
      D|-------------------9-7~--6-4~--6~-4h6p4\2-----------|
      A|----------------------------------------------------|
      E|----------------------------------------------------|
      
      
      E|----------------------------------------------------|
      B|----------------------------------------------------|
      G|----------------------------------------------------|
      D|-------2h4h6-p4p2-----------------------------------|
      A|-2h4h6------------6p4p2-----------------------------|
      E|------------------------4p2p0-----------------------|
      
      
      
      Quinta Parte:
      
      
      E|----------------------------------------------------|
      B|-b9r7p5--7b9r7b9r7p5--------5~----------------------|
      G|----------------------6-4-6-----6-4-----------------|
      D|----------------------------------------------------|
      A|----------------------------------------------------|
      E|----------------------------------------------------|
      
      
      E|----------------------------------------------------|
      B|-7-b9r7p5--7b9r7b9r7p5------------------------------|
      G|-----------------------x-x-4~-----------------------|
      D|----------------------------------------------------|
      A|----------------------------------------------------|
      E|----------------------------------------------------|
      
      
      E|----------------------------------------------------|
      B|-7-b9r7p5--7b9r7b9r7p5--------5~--------------------|
      G|------------------------6-4-6-----6-4---------------|
      D|----------------------------------------------------|
      A|----------------------------------------------------|
      E|----------------------------------------------------|
      
      
      E|----------------------------------------------------|
      B|----------------------------------------------------|
      G|-/8~\4~/6/9\6~--------------------------------------|
      D|----------------------------------------------------|
      A|----------------------------------------------------|
      E|----------------------------------------------------|
      
      
      E|-----17b19~-----17b19~------------------------------|
      B|-17---------17---------16~-17~----------------------|
      G|----------------------------------------------------|
      D|----------------------------------------------------|
      A|----------------------------------------------------|
      E|----------------------------------------------------|
      
      
      E|-----16b17r16---------------------------------------|
      B|-17------------17b19r17--17b19~~r17~----------------|
      G|----------------------------------------------------|
      D|----------------------------------------------------|
      A|----------------------------------------------------|
      E|----------------------------------------------------|
      
      
      E|-----17b19~-----17b19~------------------------------|
      B|-17---------17---------16~-17~----------------------|
      G|----------------------------------------------------|
      D|----------------------------------------------------|
      A|----------------------------------------------------|
      E|----------------------------------------------------|
      
      
      E|----19b21r19--16b17r16------------------------------|
      B|-17---------------------17b19r17-17b19~-------------|
      G|----------------------------------------------------|
      D|----------------------------------------------------|
      A|----------------------------------------------------|
      E|----------------------------------------------------|
      
      
      E|----------------------------------------------------|
      B|----------------------------------------------------|
      G|-9--------------------------------------------------|
      D|-9h11p9---------------------------------------------|
      A|--------11-11\9-7---7~------------------------------|
      E|------------------9---------------------------------|
      
      
      E|-----17b19~-----17b19~------------------------------|
      B|-17---------17---------16~-17~----------------------|
      G|----------------------------------------------------|
      D|----------------------------------------------------|
      A|----------------------------------------------------|
      E|----------------------------------------------------|
      
      
      E|-----16b17r16---------------------------------------|
      B|-17------------17b19r17--17b19~~r17~~---------------|
      G|----------------------------------------------------|
      D|----------------------------------------------------|
      A|----------------------------------------------------|
      E|----------------------------------------------------|
      
      
      E|----------------------------------------------------|
      B|-b19r17b19r17b19b21r17~~----------------------------|
      G|----------------------------------------------------|
      D|----------------------------------------------------|
      A|----------------------------------------------------|
      E|----------------------------------------------------|
      
      
      E|-----17b19~-----17b19~------------------------------|
      B|-17---------17---------16~-17~----------------------|
      G|----------------------------------------------------|
      D|----------------------------------------------------|
      A|----------------------------------------------------|
      E|----------------------------------------------------|
      
      
      E|----19b21r19--19b21r19r17-19~~----------------------|
      B|-17----------------------------19b21r19p17-19~~-----|
      G|----------------------------------------------------|
      D|----------------------------------------------------|
      A|----------------------------------------------------|
      E|----------------------------------------------------|
      
      
      E|----------------------------------------------------|
      B|-17-15-17~\-----------------------------------------|
      G|----------------------------------------------------|
      D|----------------------------------------------------|
      A|----------------------------------------------------|
      E|----------------------------------------------------|
      
      
      
      Sexta Parte:
      
      
      E|-3p0---0--------------------------------------------|
      B|-----3---3br~p0-------------------------------------|
      G|----------------2br2p0-2~~p0------2b4r2p0-2b4~------|
      D|-----------------------------2p0--------------------|
      A|----------------------------------------------------|
      E|----------------------------------------------------|
      
      
      E|-0-3p0----------------------------------------------|
      B|-------3p0------------------------------------------|
      G|-----------4-2p0------------------------------------|
      D|-----------------2p0--------------------------------|
      A|---------------------2------------------------------|
      E|-----------------------3-0--------------------------|
      
      
      E|----------------------------------------------------|
      B|------5---5-8p5---5~/--15---------------------------|
      G|--------7-------7---------b16r14p12-14b16~----------|
      D|----------------------------------------------------|
      A|-/5~------------------------------------------------|
      E|----------------------------------------------------|
      
      
      E|----------------------------------------------------|
      B|-15-------15-15-------------------------------------|
      G|----14b16-------14b16r14p12-14b16~~-----------------|
      D|----------------------------------------------------|
      A|----------------------------------------------------|
      E|----------------------------------------------------|
      
      
      E|-17b19r17b--17b19--17b19-17b19~~--------------------|
      B|-----------------------------------17b20~~----------|
      G|----------------------------------------------------|
      D|----------------------------------------------------|
      A|----------------------------------------------------|
      E|----------------------------------------------------|
      
      
      E|-------------------------------------19b21-19-19~---|
      B|-15-------------------------------------------------|
      G|----16\14p12----------12----------------------------|
      D|-------------14p12-14----14~~-----------------------|
      A|----------------------------------------------------|
      E|----------------------------------------------------|
      
      
      E|-19b22--19b22--19b22--19~---21b24~~---21b24~~-------|
      B|----------------------------------------------------|
      G|----------------------------------------------------|
      D|----------------------------------------------------|
      A|----------------------------------------------------|
      E|----------------------------------------------------|
      
      
      E|-/15-12----15b17~~r---15b17r15~~--------------------|
      B|--------15------------------------------------------|
      G|----------------------------------------------------|
      D|----------------------------------------------------|
      A|----------------------------------------------------|
      E|----------------------------------------------------|
      
      
      E|-12-------12-15p12-------12-------------------------|
      B|----15b17----------15b17----15p12-------------------|
      G|----------------------------------14b15r14p12-------|
      D|----------------------------------------------14-12-|
      A|----------------------------------------------------|
      E|----------------------------------------------------|
      
      
      E|----------------------------------------------------|
      B|----------------------------------------------------|
      G|----------------------------------------------------|
      D|-12~~b\---------------------------------------------|
      A|----------------------------------------------------|
      E|----------------------------------------------------|
      
        Composição: Joe SatrianiColaboração e revisão:
        • v.inny
        • _borntobewild_

        Comentários 14

        140 .
        • joaogil.calvinho joaogil.calvinho: Em 10/08/2014 09:18

          A minha pedaleira é a boss me 25 como posso imitar o som dele com a minha pedaleira?

        • leo130 leo130: Em 07/06/2014 11:49

          Terceira parte é a melhor

        • juan.andrew.906 juan.andrew.906: Em 29/12/2013 00:46

          primeiro dia com minha primeira guitarra e eu ja peguei essa música '-'

        • DANIELLE DANIELLE: Em 21/11/2013 16:54

          Legalzinho...pode melhorar!

        • Gilson Gilson: Em 19/11/2013 20:52

          Muito legal. Excelente música.

        • musteine musteine: Em 12/11/2013 21:44

          Mto legal, pegada mto boa, vlw Cifra Club !!

        • mcpitter.simoes mcpitter.simoes: Em 11/11/2013 22:33

          mt foda

        • José José: Em 11/11/2013 19:18

          Boa video aula esperamos mais :)

        • Anonimo Anonimo: Em 17/02/2013 14:34

          Video Aula por favor estou aguardando ansiosamente miha pedaleira é uma zoom G1Nextquero por uma distorção parecida POR FAVORR

          • LMustaine LMustaine: Em 12/11/2013 18:01

            usa a extreme distortion mais ou menos em 10 o ganho e mais um pouco de delay e reverb que da de boa mano

        140 cancelar

        conseguiu tocar?

        Reginaldo Pereira Barbosa472 visualizações
          ver covers de outras músicas »
          0:00 / 0:00
          1 versão de violão dificuldade exibições contribuição e correção
          1 versão de guitarra dificuldade exibições contribuição e correção
          1 versão de cavaco dificuldade exibições contribuição e correção
          1 versão de teclado dificuldade exibições contribuição e correção
          1 versão de baixo exibições contribuição e correção
          3 versões de Guitar Proformatodownloadscontribuição
          play/pausefechar subir/descer velocidade
          6ª corda E5ª corda A4ª corda D3ª corda G2ª corda B1ª corda E
            acordes
            transcrição verificada v.inny instrutor de guitarra
            publicidade
            fechar
            ok