Cifra Club

Im Sorry

John Denver

Cifra: Principal (violão e guitarra)
tom: G
E|-----------------------------------------------------------|
B|-----0--------------0--------------0-----------------------|
G|-------0--------------0--------------0---------------------|
D|---------4--------------2--------------0-------------------|
A|-------------------------------------------------0---------|
E|--3--------------3--------------3--------------3---3-------|

E|-----------------------------------------------------------|
B|----0--------------0--------------0--------------0---------|
G|------0--------------0--------------0--------------0-------|
D|--------0--------------2--------------4--------------4-----|
A|-----------------------------------------------------------|
E|-3--------------3--------------3---------------3-----------|

E|-----------------------------------------------------------|
B|---0---------------0--------------0------------------------|
G|-----0---------------0--------------0----------------------|
D|-------4---------------2--------------0--------------------|
A|--------------------------------------------------0--------|
E|-3--------------3--------------3---------------3----3------|

G                        Am
It's cold here in the city it always seems that way
    D7                                  G
And I've been thinking about you almost every day 
                              Am
Thinking about the good times thinking about the rain
D7                                G
Thinking about how bad it feels a-lone again
    C               D7              G
I'm sorry for the way things are in China,
    C                  D7               G
I'm sorry things ain't what they use to be
    C                  D7       G     D        E  E/D   C  C/B  A
But more than anything else I'm sorry for myself
      D7         G  
Cause you're not here with me

     G                            Am
Our  friends all ask about you, I say you're doing fine
D7                               G
I expect to hear from you almost anytime
                                   A
But they all know I'm cryin', that I can't sleep at night
D7                                G
They all know I'm dying down deep inside.
   C         D7            G
I'm sorry for all the lies I told you
    C             D7               G
I'm sorry for the things I didn't  say
    C                  D7       G     D        E  E/D  C  C/B  Am
But more than anything else I'm sorry for myself
  D7                G  
I can't believe you went away

    C             D7                G
I'm sorry if I took some things for granted
    C             D7               G
I'm sorry for the chains I put on  you
    C                  D7       G     D        E  E/D  C  C/B  A
But more than anything else I'm sorry for myself
    D7          G  
For living with-out you
00:00 / 00:00
Outros vídeos desta música
Repetir
Outros vídeos desta música
Composição de John Denver
Colaboração e revisão:
  • Helena Oliveira
  • Jucilene Santos
1.637 exibições
    • ½ Tom
    • A
    • Bb
    • B
    • C
    • Db
    • D
    • Eb
    • E
    • F
    • F#
    • G
    • Ab
  • Adicionar à lista

    0 comentários

    Ver todos os comentários

    Conseguiu tocar?

    2 Tocaram 1 Ainda não

    Grave um vídeo tocando Im Sorry e nos envie!

    Entre para oCifra Club PRO

    Tenha acesso a benefícios exclusivos no App e no Site

    • Chega de anúncios

    • Prioridade de compra em lançamentos

    • Mais recursos no app do Afinador

    • Atendimento Prioritário

    • Descontos nos produtos Cifra Club

    • Ajude a produzir mais conteúdo

    00:00 / 00:00

    Cifra Club Pro

    Aproveite o Cifra Club com benefícios exclusivos e sem anúncios
    Cifra Club Pro
    Aproveite o Cifra Club com benefícios exclusivos e sem anúncios
    OK