Cifra Club

Aprenda

Tiny Dancer

John Frusciante

Cifra: Principal (violão e guitarra)
tom: C
F       C              Dm
Hold me closer tiny dancer

E|------------------------------------------------------------|
B|----10---10--10--x----8----8---8----x---6--6--6--6--6--(...)|
G|----10---10--10--x----9----9---9----x---7--7--7--7--7--(...)|
D|----10---10--10--x----10---10--10---x---7--7--7--7--5--(...)|
A|----8----8---8---x----10---10--10---x---5--5--5--5--5--(...)|
E|------------------------------------------------------------|

F           C                   G
I count the head-lights on the high-way

E|----------------------------------------------------|
B|----------10---10--x----8---8---8----x---3--3--(...)|
G|----------10---10--x----9---9---9----x---4--4--(...)|
D|----------10---10--x----10--10--10---x---5--5--(...)|
A|---x--7---8----8---x----10--10--10---x---5--5--(...)|
E|----------------------------------------------------|

F      C           Dm           (2x)
Lay me down in sheets of linen

E|------------------------------------------------------------|
B|----10---10--10--x----8----8---8----x---6--6--6--6--6--(...)|
G|----10---10--10--x----9----9---9----x---7--7--7--7--7--(...)|
D|----10---10--10--x----10---10--10---x---7--7--7--7--5--(...)|
A|----8----8---8---x----10---10--10---x---5--5--5--5--5--(...)|
E|------------------------------------------------------------|

F         C         G
You had a busy day today

E|----------------------------------------------------|
B|----------10---10--x----8---8---8----x---3--3--(...)|
G|----------10---10--x----9---9---9----x---4--4--(...)|
D|----------10---10--x----10--10--10---x---5--5--(...)|
A|---x--7---8----8---x----10--10--10---x---5--5--(...)|
E|----------------------------------------------------|

( Dm )
Composição de Elton John
Colaboração e revisão:
  • karlo
  • Wyll
19.568 exibições
    • ½ Tom
    • A
    • Bb
    • B
    • C
    • Db
    • D
    • Eb
    • E
    • F
    • F#
    • G
    • Ab
  • Adicionar à lista

    0 comentários

    Ver todos os comentários
    00:00 / 00:00
    Outros vídeos desta música
    Repetir Qualidade Automático
    Outros vídeos desta música
    00:00 / 00:00
    Automático

    Cifra Club Pro

    Aproveite o Cifra Club com benefícios exclusivos e sem anúncios
    Cifra Club Pro
    Aproveite o Cifra Club com benefícios exclusivos e sem anúncios
    OK