Cifra Club

Aprenda

Unreachable

John Frusciante

Cifra: Principal (violão e guitarra)
tom: A
C# Eb
Are we
G#           Eb   Fm
Down for the same cause
         G#           Eb   Fm
We don't know what we stand for
         G#      Eb      Fm
When the moments start to crack
            C#          Eb          Bb
You do lose track where your head's at

         G#  Eb  Fm
And I am unreachable
            G#              Eb     Fm
What do you think when your head's full?
         G#      Eb      Fm
We don't rely on what we get
              C#       Eb        Bb
We're picking up where we aren't yet
HEY!

( Fm G# Fm G# Fm G# Fm G# )

Fm  G#    Eb             Bb           Fm G#
One time, hit me where I turn white
Eb                 Bb
I don't mean to be polite
Fm   G#    Eb                        Bb
Uniformed, spinning the world to the beat of my drum
Fm   G#     Eb     Bb
Uniformed

Fm  G#    Eb             Bb           Fm G#
One time, hit me where I turn white
Eb                 Bb
I don't mean to be polite
Fm   G#    Eb                        Bb
Uniformed, spinning the world to the beat of my drum
Fm   G#     Eb     Bb
Uniformed

Fm                          G#
Reach into the darkness for what you can find
Eb                    Bb
Travel great distance in your mind
Fm                         G#
The world gets stronger as you start trying thing
Eb                             Bb
Turn around towards being born away from dying
Fm                             G#
I've run out again, there's no one on my side
Eb                     Bb
We to disappear, well, I know I tried
Bb
You know we tried, you know we tried

C#        Fm      Eb    Fm
Heeeeeeey shoot me heeeeeeeey
C#        G#          Eb      Fm       C#              Bb
Heeeeeeey shoot me shoot me shoot me yeah yeah yeah hey hey yeah
Fm    Eb
Aaaaah
Fm    Eb
Aaaaah

[Solo]

  Backing Track. I can't tell if it's keyboard or guitar with reverb and/or delay, but here it is...
  (3:21)
E|---17--16--14-12---------12--14-------|
B|-----------------12--14----------14---|
G|--------------------------------------| Repeat
D|--------------------------------------| (I believe there's some variations with this aswell)
A|--------------------------------------|
E|--------------------------------------|

  Guitar starts (John either uses wah or phaser for this. But I'm going to just use wah)
  (3:41)                               (4:03)                                          (4:12)
E|------------------------------------|-----------------------------------------------|------------------------|
B|------------------------------------|------------------------7-------10p9-7---------|------7-----------------|
G|------------------------------------|--4/6~--4/6-2-4~----6h9---4-6~---------6p4-2~--|--4/6---6---4h6p4\2/4~--|
D|------------------------------------|-----------------------------------------------|------------------------|
A|--6h8p6h8p6h8p6h8-(| Keeps going...)--|-----------------------------------------------|------------------------|
E|------------------------------------|-----------------------------------------------|------------------------|

  From here, everything starts to get mashed together a bit. But, this is what I got out of it
  (don't expect it to be right, I'm still not sure if that's right myself)
  (4:17)                      (4:20)             (4:22)
E|---------------------------|------------------|----------------------------------|
B|---------------------------|------------------|----------------------------------| Basically, throughout this part (4:17 - 4:40), he's doing
G|--2h4/6p4\2h4-2h4p2--------|------------------|----------------------------------| hammer-ons, pull-offs and such in this particular fasion.
D|--------------------4p2h4--|--2h4p2-----------|-----2h4p2-4----------------------| Slowly ascending in strings and frets, what I have tabbed
A|---------------------------|-------h4p2h4~\2--|--2h4--------4-2h4p2-4-0h2p0-0----| out here should explain what you should go for.
E|---------------------------|------------------|-------------------------------2--|

  Turn on the distortion
  (4:44)                                   (4:48)                            (4:52)
E|-----------------------9-12-------------|---------12------------12----12--|-12h14-14-(x10)-12h14--|
B|--12b14r12-7~--7h10-12------10h12p10-7--|-7h10-12------------12----12-----|-----------------------|
G|----------------------------------------|------------11~--11--------------|---r| epeat as long as---|
D|----------------------------------------|---------------------------------|-------| necessary-------|
A|----------------------------------------|---------------------------------|-----------------------|
E|----------------------------------------|---------------------------------|-----------------------|

  This riff is played in the background
  (4:54)                                  (4:59)
E|---------7-9-7---------------7---------|---------7-9-7----------------9-10-9-7-9--|
B|--7-9-10-------10-9---7-9-10---10-9----|--7-9-10-------10-9---9-10-12-------------|
G|--------------------9---------------9--|--------------------9---------------------|
D|---------------------------------------|------------------------------------------|
A|---------------------------------------|------------------------------------------|
E|---------------------------------------|------------------------------------------|

  (5:04)                               (5:09)
E|-------7-9-7------------------------|-----------------------------------------------|
B|--7-10-------10-9---7-9-10-9-7---7--|-----------------------------------------------|
G|------------------9------------9~---|-6~--6--6--6-6-9p6-9/11-11-11-11-14-11-14-11\--|
D|------------------------------------|-----------------------------------------------|
A|------------------------------------|-----------------------------------------------|
E|------------------------------------|-----------------------------------------------|

  Starts working some damn nifty effects (I can't tell what they are)
   I couldn't work out this part, so, kudos to normalowbird for working the chords to this part

     C#               D#               Fm                    Fm
E|--4--4--4-4--4--|--6--6--6-6--6--|--8---8---8--8---8---|--8---8---8--8---8---|
B|--6--6--6-6--6--|--8--8--8-8--8--|--9---9---9--9---9---|--9---9---9--9---9---|
G|--6--6--6-6--6--|--8--8--8-8--8--|--10--10--10-10--10--|--10--10--10-10--10--|
D|--6--6--6-6--6--|--8--8--8-8--8--|--10--10--10-10--10--|--10--10--10-10--10--|
A|--4--4--4-4--4--|--6--6--6-6--6--|---------------------|---------------------|
E|----------------|----------------|---------------------|---------------------|

  This starts to overlap the chords above
  Still using Wah and Distortion
  (5:39)
E|--15b17~~---15b17r15--12-14-12h14~~----------------------|
B|--------------------------------------12b14r12-10--------|
G|---------------------------------------------------9h11--|
D|---------------------------------------------------------|
A|---------------------------------------------------------|
E|---------------------------------------------------------|
Composição de John Frusciante
Colaboração e revisão:
  • Leonardo Rodrigues
  • Leonardo Oliveira
11.040 exibições
    • ½ Tom
    • A
    • Bb
    • B
    • C
    • Db
    • D
    • Eb
    • E
    • F
    • F#
    • G
    • Ab
  • Adicionar à lista

    0 comentários

    Ver todos os comentários
    00:00 / 00:00
    Outros vídeos desta música
    Repetir Qualidade Automático
    Outros vídeos desta música
    00:00 / 00:00
    Automático

    Cifra Club Pro

    Aproveite o Cifra Club com benefícios exclusivos e sem anúncios
    Cifra Club Pro
    Aproveite o Cifra Club com benefícios exclusivos e sem anúncios
    OK