Cifra Club

Imagine

John Lennon

Cifra: Principal (violão e guitarra)
exibições 2.080.350
Tom: Am
[Intro]

      C/G         C7M F
E|------------------------------------------|
B|-------------0--------------------0-------|
G|-0---0---0---0---2---2---2---2-3----------|
D|-2---2---2-----2-3---3---3----------------|
A|-3-3---3---3-3---3-3---3---3--------------|
E|-3---------------1------------------------|

      C/G         C7M F
E|------------------------------------------|
B|-------------0--------------------0-------|
G|-0---0---0---0---2---2---2---2-3----------|
D|-2---2---2-----2-3---3---3----------------|
A|-3-3---3---3-3---3-3---3---3--------------|
E|-3---------------1------------------------|

[Primeira Parte - Dedilhado da Intro]

C/G                 C7M   F
   Imagine there's no heaven
C/G              C7M  F
   It's easy if you try
C/G         C7M  F
   No hell below us
C/G          C7M    F
    Above us only sky

[Refrão]

F          C/E          Dm7   F/C
   Imagine all the people
 G            G7
Living for today a-hah

[Primeira Parte - Variação I]

C/G                 C7M     F
   Imagine there's no countries
C/G               C7M  F
   It isn't hard to do
C/G                C7M F
   Nothing to kill or die for
 C/G           C7M   F
   And no religion too

F          C/E          Dm7   F/C
   Imagine all the people
    G              G7
   Living life in peace yu-huh

[Segunda Parte]

F           G          C      C7M  E  E7
   You may say I'm a dreamer
F           G               C  C7M  E  E7
   But I'm not the only one
F              G          C      C7M  E  E7
   I hope someday you'll join us
F           G          C
   And the world will be as one

[Passagem e variação do dedilhado da 1ª parte]
                  C
E|------------------------------------------|
B|-------------1---1---1---0----------------|
G|-------------0---0---0---0----------------|
D|-------------2-2---2---2---2--------------|
A|---3---3---3-3---3---3---3----------------|
E|-3---5---7--------------------------------|

[Primeira Parte - Variação II]

C              C7M   F
   Imagine no possessions
C/G             C7M F
   I wonder if you can
C/G                  C7M    F
   No need for greed or hunger
C/G              C7M F
   A brotherhood of man

[Refrão]

F          C/E          Dm7   F/C
   Imagine all the people
  G              G7
Sharing all the world yu-huh

F           G          C      C7M  E  E7
   You may say I'm a dreamer
F           G               C  C7M  E  E7
   But I'm not the only one
F              G          C      C7M  E  E7
   I hope someday you'll join us
F           G          C
   And the world will live as one

0 comentários

mostrar mais comentários

Conseguiu tocar?

303 tocaram 15 ainda não

Grave um vídeo tocando Imagine e mande pra gente!

00:00 / 00:00
outros vídeos desta música
repetir qualidade Automático
Outros vídeos desta música
00:00 / 00:00
Automático
Capítulos
  • Início
  • Tocando trecho da música
  • Acordes da introdução e primeira parte
  • Tocando introdução e primeira parte
  • Ensinando dedilhado intro e primeira parte
  • Acordes do refrão
  • Tocando refrão
  • Ensinando ritmo do refrão
  • Acordes da segunda parte
  • Tocando segunda parte
  • Ensinando ritmo segunda parte
  • Passagem e variação última parte
  • Ensinando ritmo da passagem
  • Encerramento
  • Extras
OK