Cifra Club

Aprenda

Yesterday

John Lennon

Cifra: Principal (violão e guitarra)
tom: C
E|----------------------------------------------------]
B|------------0-1-0-----------------------------------]
G|--------1-2------2-2-2-2-0--------------------------]      2 vezes
D|-0---2-4------------------3-2-0-3-2-2-0---2-0----2-2]
A|--3-3-----------------------------------3-----0-3---]
E|----------------------------------------------------]

E|---------------------------------------------]
B|-----0-1-0--0---O-----------0-1-0-0---0-1----]
G|----2------2-2-0----------2------2-2-0---0---]
D|-2-2-------------2--2--2------------------3-2]
A|---------------------------------------------]
E|---------------------------------------------]

 REPETE A 1ª PARTE (1 VEZ )E A 2ª PARTE FINALIZA ASSIM:
E|------------]
B|------------]
G|------------]
D|---2-0---2-2]
A|-3----0-3---]
E|------------]

Composição de John Lennon / Paul McCartney
Colaboração e revisão:
  • joao albino
  • victor horn
75.812 exibições
    • ½ Tom
    • A
    • Bb
    • B
    • C
    • Db
    • D
    • Eb
    • E
    • F
    • F#
    • G
    • Ab
  • Adicionar à lista

    0 comentários

    Ver todos os comentários
    00:00 / 00:00
    Outros vídeos desta música
    Repetir Qualidade Automático
    Outros vídeos desta música
    00:00 / 00:00
    Automático

    Cifra Club Pro

    Aproveite o Cifra Club com benefícios exclusivos e sem anúncios
    Cifra Club Pro
    Aproveite o Cifra Club com benefícios exclusivos e sem anúncios
    OK