Cifra Club

Aprenda

Back To You

John Mayer

Cifra: Principal (violão e guitarra)
Tom: A
[Intro]  A  F#m  Bm  E  F#m

E|---------------------7----------------------7-----------------|
B|------------10---9-----------------10---9-------9----7--------|
G|--------9---------------------9--------------------------9----|
D|----7---------------------7-----------------------------------|
A|--------------------------------------------------------------|
E|--------------------------------------------------------------|

E|---------------------7----------------------7-------------------------------|
B|------------10---9-----------------10---9-------9----7------------------10--|
G|--------9---------------------9--------------------------9----------9-------|
D|----7---------------------7-------------------------------------7-----------|
A|----------------------------------------------------------------------------|
E|----------------------------------------------------------------------------|

A
Back to you
                 F#m
It always comes around
Back to you
              Bm7
I tried to forget you
                 E
I tried to stay away
             F#m
But it's too late

A
Over you
           F#m
I'm never over
Over you
           Bm7
Something about you
                      E
It's just the way you move
                 F#m
The way you move me
E
Yeah

       F#m        D         E
I'm so good at forgetting
            F#m  D      E
And I quit every game I play
       F#m  C#m  D
But forgive me, love
        Bm            E
I can't turn or walk away

E|---------------------7----------------------7-----------------|
B|------------10---9-----------------10---9-------9----7--------|
G|--------9---------------------9--------------------------9----|
D|----7---------------------7-----------------------------------|
A|--------------------------------------------------------------|
E|--------------------------------------------------------------|

E|---------------------7----------------------7-------------------------------|
B|------------10---9-----------------10---9-------9----7------------------10--|
G|--------9---------------------9--------------------------9----------9-------|
D|----7---------------------7-------------------------------------7-----------|
A|----------------------------------------------------------------------------|
E|----------------------------------------------------------------------------|

A
Back to you
                F#m
It always come around
Back to you
                 Bm7
I walk with your shadow
                   E
I'm sleeping in my bed
             F#m
With your silhouette
E
Yeah

            F#m            D         E
Should have smiled on that picture
              F#m            D      E
If that's the last that I'll see of you
         F#m   C#m  D
It's the least that you
Bm        E
Could not do

( C#m11  C  G )

E/G#  A      D
 Leave  the light on
     E/G#       A      D
I'll never give up on you
E/G#  A      D
 Leave  the light on
    Bm11
For me too

    C#m11
For me too
    C
For me too
D
Yeah

( A  F#m  Bm  E  F#m )

[Solo] 

E|-------------------------------------------------------------------------------------------------|
B|--12/14~---12/14\12---14p12--12-----------------12/14----14/9----14/9-------14/7-----14b15r14~~--|
G|--------------------------------14~-----14---11-----------------------11---------9---------------|
D|-------------------------------------------------------------------------------------------------|
A|-------------------------------------------------------------------------------------------------|
E|-------------------------------------------------------------------------------------------------|

[Final]

         A             A9    F#m             Bm7          E         F#m
E|----0--0-----0-0---0--|-2--2------2----|-2-----2---|-0--0-----|-2----------------|
B|----2---2--2-2--2--0--|-2---2-2----2-2-|-3--3------|-0------0-|-2----------------|
G|----2----2---2---2-2--|-2----2------2--|-2----2----|-1-----1--|-2-----2-----2----|
D|----2-----------------|-4------4-------|-4---4-----|-2---2----|-4-------4-----4--|
A|----2-----------------|-4--------------|-2---------|-2--------|-4---4------4-----|
E|----------------------|-2--------------|-2---------|-0--------|-2--2-2----2-2----|

A
Back to me
               F#m
I know that it comes
Back to me
           Bm7
Doesn't it scare you
                    E
Your will is not as strong
              F#m
As it used to be

Riff Final
E|-------------------------------------|
B|---------------------------------12--|
G|--11h13----11------11h13------11-----|
D|-------15-----------------15---------| 
A|-------------------------------------|
E|-------------------------------------|
Composição de John Mayer
Colaboração e revisão:
  • Fabricio Méndez
  • Pablo Faria
  • Leonardo Oliveira
89.986 exibições
    • ½ Tom
    • A
    • Bb
    • B
    • C
    • Db
    • D
    • Eb
    • E
    • F
    • F#
    • G
    • Ab
  • Adicionar à lista

    0 comentários

    Mostrar mais comentários

    Conseguiu tocar?

    10 Tocaram 0 Ainda não

    Grave um vídeo tocando Back To You e mande pra gente!

    00:00 / 00:00
    outros vídeos desta música
    repetir qualidade Automático
    Outros vídeos desta música
    00:00 / 00:00
    Automático

    Cifra Club Pro

    Aproveite o Cifra Club com benefícios exclusivos e sem anúncios
    7 dias grátis
    Cifra Club Pro
    Aproveite o Cifra Club com benefícios exclusivos e sem anúncios
    7 dias grátis
    OK