Cifra Club

Daughters

John Mayer

Cifra: Principal
exibições 643.552
Tom: C
Afinação violão 2: D A D F# A D

Intro: Bm7(11)  Em7  A4(7/9)  D6(9)
Solo:
D|---------------------------------------------------
A|---------------------------------------------------
F|-3/5~--7/8\5~--7/8/10~--12/13/12~--12/15~----------
D|---------------------------------------------------
A|---------------------------------------------------
D|---------------------------------------------------

Dedilhado 1ª parte:
Bm7
D|---------------0--------------------------
A|-------0-----------0----------------------
D|-----0-----------------0------------------
F|---0--------0-----------------------------
A|-2--------2------2---2--------------------
D|------------------------------------------

Em4(7)
D|---------------0--------------------------
A|-------0-----------0----------------------
F|-----1-----------------1------------------
D|---0--------0-----------------------------
A|------------------------------------------
D|-2--------2------2---2--------------------

A4(7)     A4(6)
D|---------------0--------------------------
A|-------0-----------0----------------------
D|-----1-----------------0------------------
F|---2--------2-----------------------------
A|-0--------0------0---0--------------------
D|------------------------------------------

D
D|---------------0--------------------------
A|-------0-----------0----------------------
F|-----0-----------------0------------------
D|---0--------0-----------------------------
A|------------------------------------------
D|-0--------0------0---0--------------------

Bm7(11)   Em7
I know a girl
              A4(7/9)            D6(9)
She puts the color inside of my world
      Bm7(11)          Em7
But she's just like a maze
                  A4(7/9)                D6(9)
Where all of the walls all continually change

Em7 F#m7     Bm7(11)          Em7
         And I've done all I can
                  A4(7/9)                  D6(9)
To stand on the steps with my heart in my hands
 Bm7(11)             Em7
Now I'm starting to see
                A4(7/9)            D6(9)
Maybe it's got nothing to do with me

Refrão:
 Bm7(11)     E7          A4(7/9)    D6(9)
Fathers be good to your daughters,
 Bm7(11)        E7            A4(7/9)    D6(9)
Daughters will love like you do,
 Bm7(11)      E7         A4(7/9)      D6(9)
Girls become lovers who turn into mothers
    Bm7(11)     E7           A4(7/9)   D6(9)
So mothers be good to your daughters too

Segunda Parte:

( Bm7(11)  Em7  A4(7/9)  D6(9) Em7  F#m7(11) )

Solo:
D|---------------------------------------------2/4~--
A|-------------5/7-5~------4/5-4~--5/7\5--2/5--------
F|-3/4-5~----5-----------5---------------------------
D|---------5-----------5-----------------------------
A|---------------------------------------------------
D|---------------------------------------------------

D|-2/4-2p0-------------------------------------------
A|---------2p0---------------------------------------
F|-------------1p0-----------------------------------
D|-----------------2---------------------------------
A|---------------------------------------------------
D|---------------------------------------------------

Bm7(11)            Em7
Oh, you see that skin?
          A4(7/9)                D6(9)
It's the same shes been standing in
 Em7    F#m7(11)   Bm7(11)         Em7
Since the         day she saw him walking away
          A4(7/9)
Now shes left
                           D6(9)  Em7 F#m7(11)
Cleaning up the mess he made

Refrão:
 Bm7(11)     E7          A4(7/9)    D6(9)
Fathers be good to your daughters,
 Bm7(11)        E7            A4(7/9)    D6(9)
Daughters will love like you do,
 Bm7(11)      E7         A4(7/9)      D6(9)
Girls become lovers who turn into mothers
    Bm7(11)     E7           A4(7/9)   D6(9)
So mothers be good to your daughters too

Terceira parte:
Solo final:
D|-5/7\5-5\4-4~-4/5\4~-------------------------------
A|----------------------7/9\7-7\5-5~-----------------
F|---------------------------------------------------
D|---------------------------------------------------
A|---------------------------------------------------
D|---------------------------------------------------

D|---------------------------------------------------
A|-5\4-4/5-5/9~--1/2~--5\4-4/5-5/8~------------------
F|---------------------------------------------------
D|---------------------------------------------------
A|---------------------------------------------------
D|---------------------------------------------------

D|---------------------------------------------------
A|-5/7~--7/9--9/10~--10~/12~-------------------------
F|---------------------------------------------------
D|---------------------------------------------------
A|---------------------------------------------------
D|---------------------------------------------------

D|-9/12\9-------------9/12\9-------------------------
A|--------11/12\11~----------9/10\9~-----------------
F|---------------------------------------------------
D|---------------------------------------------------
A|---------------------------------------------------
D|---------------------------------------------------

D|-9/12\9--------------------------------------------
A|--------11/12\11~-10\9-9~--------------------------
F|---------------------------------------------------
D|---------------------------------------------------
A|---------------------------------------------------
D|---------------------------------------------------

 D5/C  C5/Bb            D9
Boys          you can break
        A7(13)       Bb°           Bm7(11)
You'll find out how much they can take
                Em7
Boys will be strong and
             D9/F#
Boys soldier on
                   Gm7
But boys would be gone without warmth from
   A7      (passagem)
A woman's good, good heart
Passagem:
D|-0---0---0--------------|
A|-3---5---7--------------|
F|-0---0---0--------------|
D|-4---5---7--------------|
A|-0---0---0--------------|
D|-x---x---x--------------|

( Bm7(11)  E7  A4(7/9)  D6(9) )  (2x)

            Bm7(11)    E7
On behalf of every man
                A4(7/9)     D6(9)
Looking out for every girl
             Bm7(11)     E7            A4(7/9)   D6(9)
You are the god and the weight of her world

Refrão:
 Bm7(11)     E7          A4(7/9)    D6(9)
Fathers be good to your daughters,
 Bm7(11)        E7            A4(7/9)    D6(9)
Daughters will love like you do,
 Bm7(11)      E7         A4(7/9)      D6(9)
Girls become lovers who turn into mothers
    Bm7(11)     E7           A4(7/9)   D6(9)
So mothers be good to your daughters too
Acordes para:
    Composição: John MayerColaboração e revisão:
    • Gustavo Cunha
    • Paulo José
    • Felipe

    0 comentários

      mostrar mais comentários

      Conseguiu tocar?

      53tocaram1ainda não

      Grave um vídeo tocando Daughters e mande pra gente!

      00:00 / 00:00
      outros vídeos desta música
      repetirqualidadeautomática
      Outro vídeos desta música
        00:00 / 00:00
        automática
        Capítulos
        • Início
        • Dicas iniciais
        • Tocando a música
        • Acordes da música (violão 1)
        • Acordes do dedilhado e ritmo (violão 2)
        • Tocando trecho primeira parte
        • Ensinando ritmo (Intro ao refrão)
        • Ensinando Solo da Intro (violão 2)
        • Ensinando dedilhado (Parte 1 e 2 - violão 2)
        • Ensinando dedilhado (Parte 3 e 4 - violão 2)
        • Tocando dedilhado (violão 2)
        • Tocando segunda parte
        • Ensinando ritmo da segunda parte (violão 1)
        • Ensinando Solo (Parte 1 - violão 2)
        • Ensinando Solo (Parte 2 - violão 2)
        • Acordes da terceira parte (violão 1)
        • Tocando terceira parte
        • Ensinando ritmo terceira parte (violão 1)
        • Ensinando Solo final (Parte 1 - violão 2)
        • Ensinando Solo final (Parte 2 - violão 2)
        • Ensinando Solo final (Parte 3 - violão 2)
        • Ensinando Solo final (Parte 4 - violão 2)
        • Encerramento
        OK