Cifra Club

Gravity

John Mayer

Cifra: Guitarra (violão e guitarra)
tom: G
[Introdução] G  C  G  C

Parte 1 de 5
E|------------------------------------------|
B|-----8-8h10b12rb12~-----------------------|
G|-/9---------------------------------------|
D|------------------------------------------|
A|------------------------------------------|
E|------------------------------------------|

Parte 2 de 5
E|------------------------------------------|
B|-----8-8h10b12-10b12--10-10~--------------|
G|-/9---------------------------------------|
D|------------------------------------------|
A|------------------------------------------|
E|------------------------------------------|

Parte 3 de 5
E|------------------------------------------|
B|-----8-8h10b12rb12~-----------------------|
G|-/9---------------------------------------|
D|------------------------------------------|
A|------------------------------------------|
E|------------------------------------------|

Parte 4 de 5
E|------------------------------------------|
B|-----8-8h10b12-b12r10--8-8~---------------|
G|-/9---------------------------------------|
D|------------------------------------------|
A|------------------------------------------|
E|------------------------------------------|

Parte 5 de 5
E|------------------------------------------|
B|---10~------------------------------------|
G|-9----------------------------------------|
D|------------------------------------------|
A|------------------------------------------|
E|------------------------------------------|

[Primeira Parte]

   G
E|------------------------------------------|
B|-3----3-3-3---------3---------------------|
G|-4----4-5-4---------4---------------------|
D|-5----5-5-5--5------5---------------------|
A|-5----------------------------------------|
E|-3----------------3-----------------------|

   C
E|------------------------------------------|
B|------------------------------------------|
G|------------5-7\5----5--------------------|
D|---5----5-7-7-9\7----5--------------------|
A|-5-7-------------------5h7--5-------------|
E|-------------------------------7\5-3------|

   G
E|------3----3-5---3------------------------|
B|------3----3-3---3------------------------|
G|------4----4-4---4------------------------|
D|-5----5-----------------------------------|
A|-5----------------------------------------|
E|-3----------------------------------------|

   C
E|------------------------------------------|
B|-5----------------------------------------|
G|-5----------------------5----5------------|
D|-5--------5-------------5----5------------|
A|-7----5h7---5h7----5h7-----7--------------|
E|------------------------------------------|

  G    
Gravity 
             C
Is working against me
  G    
Gravity 
                   C
Wants to bring me down

[Primeiro Refrão]

   Am7
E|---------------5--------------------5-----|
B|----8------8-----8-------8------8-----8---|
G|------5------5-----5-------5------5-----5-|
D|-7------7-------------7------7------------|
A|-0--------------------0-------------------|
E|------------------------------------------|

   D7
E|------------------------------------------|
B|-7-------7-----7------7-------------------|
G|-5----5-----5------5-----5----------------|
D|-4----4------------4----------------------|
A|-5----5------------5----------------------|
E|------------------------------------------|

   Gm
E|------------------------------------------|
B|-8----------8-----------------------------|
G|-7--7---7---------------------------------|
D|-8----8---8-------------------------------|
A|------------------------------------------|
E|------------------------------------------|

   Eb7M
E|------------------------------------------|
B|------------------------------------------|
G|-7-------7--------------------------------|
D|-5-------5--------------------------------|
A|-6----6-----------------------------------|
E|------------------------------------------|

   D7
E|------------------------------------------|
B|-7------7---------------------------------|
G|-5----5----5-----5------------------------|
D|-4----4-------4--4------------------------|
A|-5----5----------5------------------------|
E|------------------------------------------|

      Am7   
I'll never know

What makes this man
     D7
With all the love 

That his heart can stand
  Gm          
Dream of ways 
      Eb7M           D7
To throw it all away

[Segunda Parte]

   G
E|------------------------------------------|
B|-3----3------3-3-3------------------------|
G|-4----4------4-5-4------4----5------------|
D|-5---------5----------5-------------------|
A|-5----------------------------------------|
E|-3----------------------------------------|

   C
E|------------------------------------------|
B|-------5----------------------------------|
G|-------5-------/7----7\5----5\4-----------|
D|-------5-------/9----9\7----7\5-----------|
A|-/7---------5-----------------------------|
E|------------------------------------------|

   G
E|------5/7\5/7\5-3-------------------------|
B|-3----------------------------------------|
G|-4----5/7\5/7\5-4-----5--5/7--------------|
D|-5--------------------5--7/9--------------|
A|------------------5h7---------------------|
E|------------------------------------------|

   C
E|------------------------------------------|
B|--------8----7----5-----------------------|
G|-5------5----5----5-----------------------|
D|-5------5----5----5-----------------------|
A|-5h7----7----7----7-----------------------|
E|------------------------------------------|

  G    
Gravity 
             C
Is working against me
      G     
And gravity 
                   C
wants to bring me down

[Segundo Refrão]

   Am7
E|------------------------------------------|
B|-8-------8--------8--------8--------8\----|
G|-5---5--------5--------5--------5---------|
D|-7-7---7----7---7----7---7----7---7-------|
A|-0----------------------------------------|
E|------------------------------------------|

   D7
E|------------------------------------------|
B|---------7--------7--------7--------7-----|
G|-----5--------5--------5--------5---------|
D|-4-4---4----4---4----4---4----4---4-------|
A|-5----------------------------------------|
E|------------------------------------------|

   Gm
E|------------------------------------------|
B|-8-------8\-------------------------------|
G|-7---7------------------------------------|
D|-8-8---8----------------------------------|
A|------------------------------------------|
E|------------------------------------------|

   Eb7M
E|------------------------------------------|
B|------------------------------------------|
G|-7-------7--------------------------------|
D|-5---5------------------------------------|
A|-6-6---6----------------------------------|
E|------------------------------------------|

   D7
E|------------------------------------------|
B|-7-------------7--------------------------|
G|-5----------5-----------------------------|
D|-4-------4--------------------------------|
A|-5----5-----------------------------------|
E|------------------------------------------|

  Am7        
Twice as much 

Ain't twice as good
     D7
And can't sustain 

Like a one half could
      Gm              
It's wanting more
              Eb7M               D7
That's gonna send me to my knees

[Solo] G  C  G  C 

Parte 1 de 4
E|-----------------------------------------------------|
B|-10h12/15~---\12p10h12~------------------------------|
G|-----------------------------------------------------|
D|-----------------------------------------------------|
A|-----------------------------------------------------|
E|-----------------------------------------------------|

Parte 2 de 4
E|-----------------------------------------------------|
B|-10h12/17~---15p12\10----12\8~-----------------------|
G|-----------------------------------------------------|
D|-----------------------------------------------------|
A|-----------------------------------------------------|
E|-----------------------------------------------------|

Parte 3 de 4
E|-------19~---------17~-------------19-------17-------|
B|-15-17-------15-17-----------15-17----15-17----------|
G|-----------------------------------------------------|
D|-----------------------------------------------------|
A|-----------------------------------------------------|
E|-----------------------------------------------------|

Parte 4 de 4
E|-------19b20r19b20r19--15----------------------------|
B|-15-17-----------------------15b17r15b17r15p12-------|
G|-----------------------------------------------------|
D|-----------------------------------------------------|
A|-----------------------------------------------------|
E|-----------------------------------------------------|

Parte 4 de 4
E|-----------------------------------------------------|
B|-10/12~---15/17-\10~---8h10/15\13--------------------|
G|-----------------------------------------------------|
D|-----------------------------------------------------|
A|-----------------------------------------------------|
E|-----------------------------------------------------|

[Terceiro Refrão]

   Am7
E|------------------------------------------|
B|-8-------8--------8--------8--------8\----|
G|-5---5--------5--------5--------5---------|
D|-7-7---7----7---7----7---7----7---7-------|
A|-0----------------------------------------|
E|------------------------------------------|

   D7
E|------------------------------------------|
B|-7-------7--------7--------7--------7-----|
G|-5---5--------5--------5--------5---------|
D|-4-4---4----4---4----4---4----4---4-------|
A|-5----------------------------------------|
E|------------------------------------------|

   Gm
E|------------------------------------------|
B|-8-------8|---------8\--------------------|
G|-7---7--------7---------------------------|
D|-8-8---8----8---8-------------------------|
A|------------------------------------------|
E|------------------------------------------|

   Eb7M
E|------------------------------------------|
B|------------------------------------------|
G|-7-------7--------------------------------|
D|-5---5----------5\------------------------|
A|-6-6---6------6---------------------------|
E|------------------------------------------|

   D7
E|------------------------------------------|
B|-7---------------7------------------------|
G|-5-----------5----------------------------|
D|-4-------4--------------------------------|
A|-5----------------------------------------|
E|------------------------------------------|

  Am7        
Twice as much 

Ain't twice as good
     D7
And can't sustain 

Like a one half could
      Gm              
It's wanting more
              Eb7M               D7
That's gonna send me to my knees

[Quarta Parte]

  G     
Gravity 
                C
Stay the hell away from me
  G 
Gravity 
                       C
Has taken better men than me

How can that be?

Just keep me where the light is

[Final] G  C  G  C
00:00 / 00:00
Outros vídeos desta música
Repetir
Outros vídeos desta música
Composição de John Mayer
Colaboração e revisão:
  • Vinícius Dias
24.791 exibições
  • Simplificar cifra
    • ½ Tom
    • A
    • Bb
    • B
    • C
    • Db
    • D
    • Eb
    • E
    • F
    • F#
    • G
    • Ab
  • Adicionar à lista

    0 comentários

    Ver todos os comentários

    Entre para oCifra Club PRO

    Tenha acesso a benefícios exclusivos no App e no Site

    • Chega de anúncios

    • Prioridade de compra em lançamentos

    • Mais recursos no app do Afinador

    • Atendimento Prioritário

    • Descontos nos produtos Cifra Club

    • Ajude a produzir mais conteúdo

    00:00 / 00:00
    Capítulos
    • Apresentação
    • Tocando Solo Introdução
    • Ensinando Solo Introdução
    • Acordes Primeira Parte
    • Tocando Primeira Parte
    • Ensinando Primeira Parte
    • Acordes Refrão
    • Tocando Refrão
    • Ensinando Refrão
    • Tocando Segunda Parte e Refrão 2
    • Ensinando Segunda Parte
    • Ensinando Refrão 2
    • Tocando Solo
    • Ensinando Solo
    • Encerramento

    Cifra Club Pro

    Aproveite o Cifra Club com benefícios exclusivos e sem anúncios
    Cifra Club Pro
    Aproveite o Cifra Club com benefícios exclusivos e sem anúncios
    OK