Cifra Club

Aprenda

No Such Thing

John Mayer

Cifra: Principal (violão e guitarra)
tom: E
Intro:

E|--------------------------------------------------------------------------------------
B|--------------------------------------------------------------------------------------
G|-------11-----11---11-------11-----11-11-11------11-----11---11-----11-----11-11-11---
D|-------13-----13---13-------13-----13-11-14------14-----14---14-----14-----14-11-13---
A|-------11-----11---11-------11-----11-11-11------11-----11---11-----11-----11-11-11---
E|---0-0----0-0----0------0-0----0-0-----------0-0----0-0----0----0-0----0-0------------

Verso:

E|----x----x---x--------------------
B|----x----x---7--------------------
G|---11---13---9---14--12--11--11---
D|---13---11---9---12--12--12--12---
A|---11----0---x---10--10--10--10---
E|----0----x---9----0---0---0---0---

E|----x----x-----------4---
B|----x----x---7---1-2-2---
G|---11---13---9---3-3-3---
D|---13---11---9---2-2-2---
A|---11----0---x---x-x-x---
E|----0----x---9---2-2-2---

E|---0---0---0----0-----------x---
B|---0---0---0----0-----------x---
G|---4---6---9---13----------11---
D|---2---4---7---11---(x2)---13---
A|---0---0---0----0----------11---
E|---x---x---x----x-----------0---

E|---0------------------
B|---0-------0----------
G|---3---4---4-----11---
D|---2---2---2-----13---
A|---x---0---x-----11---
E|---2-------4------0---

Refrao:

E|-----------x---(0)--
B|---0--3---10---(0)--
G|---5--5---12---11---
D|---5--5---10---13---
A|---x--x----x---11---
E|---5--5---10----0---

Ponte:

E|---0--0---0---0---0---0---0--------
B|---0--1---0---0---0---0---0---0----
G|---2--2---6---2---6---2---6---2----
D|---3--3---7---3---7---3---7---3----
A|---x--x---x---x---x---x---x---x----
E|---1--1---5---1---5---1---5---3----
Composição de Clay Cook / John Mayer
Colaboração e revisão:
  • Rodrigo Alvim
93.659 exibições
    • ½ Tom
    • A
    • Bb
    • B
    • C
    • Db
    • D
    • Eb
    • E
    • F
    • F#
    • G
    • Ab
  • Adicionar à lista

    0 comentários

    Ver todos os comentários

    Conseguiu tocar?

    2 Tocaram 1 Ainda não

    Grave um vídeo tocando No Such Thing e nos envie!

    00:00 / 00:00
    outros vídeos desta música
    repetir qualidade Automático
    Outros vídeos desta música
    00:00 / 00:00
    Automático

    Cifra Club Pro

    Aproveite o Cifra Club com benefícios exclusivos e sem anúncios
    Cifra Club Pro
    Aproveite o Cifra Club com benefícios exclusivos e sem anúncios
    OK