Cifra Club

Slow Dancing In A Burning Room

John Mayer

Cifra: Principal (violão e guitarra)
Tom: A
[Intro]

Parte 1

           C#m7                 A       E
E|-----------0--0--0------------------------|
B|-----------0--0--0------------5-----5-5---|
G|------9----9--9--9----9-8-6-4-4h6---4-4---|
D|--------------------------------------4h6-|
A|-9/11-----11-11-11-9/11-9-7-6-0---0-------|
E|--------9--9--------------------------0---|
             ↓  ↑  ↓


Parte 2

           C#m7                     A     E
E|------------0--0--0-------0-0-0-0---------|
B|------------0--0--0-------0-0-0-0---------|
G|-------9----9--9--9--8/-9---8-6-4-4---6-4-|
D|--6/11-----11-11-11-10/11---9-6-4-4---6-4-|
A|----------------------------------0-0-----|
E|-0-------9------------------------------0-|
              ↓  ↓  ↑


Parte 3

           C#m7            A       E
E|-----------0-0-0-0-0-0-----------0-0-0----|
B|---5-7h9---9-9-9-9-7-5-4-4h5---4-0-0-0----|
G|---6-8h9---9-9-9-9-8-6-4-4h6---4-1-1-1----|
D|-----------9-9-9-----------------2-2-2----|
A|-------------------------0---0---2-2-2----|
E|-0-------9-----------------------0-0-0----|
             ↓ ↑ ↓                 ↓ ↑ ↓


Parte 4

        C#m7               A      E
E|---------0-0-0---0-0-0---0-0-0--0-0-0-0---|
B|-5-7h9---9-9-9-7/9-7-5-4-0-0-2--0-0-0-0---|
G|-6-8h9---9-9-9-8/9-8-6-4-2-2-2--1-1-1-1---|
D|---------9-9-9-----------2-2-2--2-2-2-2---|
A|-------------------------0-0-0--2-2-2-2---|
E|-------9------------------------0-0-0-0---|
           ↓ ↑ ↓           ↓ ↑ ↓  ↓ ↑ ↓ ↓



[Intro]

[Primeira Parte]

            C#m7
It's not a silly little moment
               A               E
It's not the storm before the calm
             C#m7
This is the deep and dying breath
                              A      E
Of this love that we've been working on

               C#m7
Can't seem to hold you like I want to
          A             E
So I can feel you in my arms
          C#m7
Nobody's gonna come and save you
                    A      E
We pulled too many false alarms

[Refrão]

             B11
We're going down
             C#m7    A
And you can see it, too
             B11
We're going down
          C#m7           F#m7
And you know that we're doomed
    C#m7
My dear, we're
                   A       E
Slow dancing in a burning room

[Intro]

[Segunda Parte]

          C#m7
I was the one you always dreamed of
             A                E
You were the one I tried to draw
              C#m7
How dare you say it's nothing to me?
                       A            E
Baby, you're the only light I ever saw

               C#m7
I'll make the most of all the sadness
             A                 E
You'll be a bitch because you can
               C#m7
You'll try to hit me just to hurt me

So you leave me feeling dirty
             A           E
Because you can't understand



[Refrão]

             B11
We're going down
             C#m7    A
And you can see it, too
             B11
We're going down
          C#m7           F#m7
And you know that we're doomed
    C#m7
My dear, we're
                   A       E
Slow dancing in a burning room

[Base Solo] 2x

C#m7  A  E


[Solo]

Parte 1

E|----------------------------------------------------|
B|-----------------12---10---9------------------------|
G|-9b10-9b10-9~---------------------------------------|
D|---------------9----9----9--------------------------|
A|----------------------------------------------------|
E|----------------------------------------------------|

Parte 2

E|----------------------------------------------------|
B|-----10/12-12-12------------------------------------|
G|-8-9-11/13-13-13----11-11---9~----------------------|
D|------------------9-------9-------------------------|
A|----------------------------------------------------|
E|----------------------------------------------------|

Parte 3

E|---11--------9------------7------------12-12-12-12~-|
B|--------12~----7/9~-9\7-------9\7-5-5---------------|
G|-9----9-----------------9---------------------------|
D|----------------------------9-----------------------|
A|----------------------------------------------------|
E|----------------------------------------------------|


[Terceira Parte]


     F#m7(11)  C#m7
Go cry about   it 
              B11  F#m7(11)
Why don't you

             C#m7
Go cry about it 
              B11  F#m7(11)
Why don't you

             C#m7
Go cry about it 
              B11  A
Why don't you

    C#m7
My dear, we're 
                   A       E
Slow dancing in a burning room

[Intro]

[Final]

                            C#m7
Don't you think we oughta know by now

Don't you think we should've 
 A              E
Learned somehow

             C#m7
Don't you think we oughta know by now

Don't you think we should've 
 A              E
Learned somehow

             C#m7
Don't you think we oughta know by now

Don't you think we should've 
 A               E
Learned somehow
    C#m7
My dear, we're 
                   A       E
Slow dancing in a burning room
exibições 6.880
Acordes para:
    Composição: John Mayer Colaboração e revisão:
    • Leandro Sandim

    0 comentários

    mostrar mais comentários

    Conseguiu tocar?

    2 tocaram 5 ainda não

    Grave um vídeo tocando Slow Dancing In A Burning Room e mande pra gente!

    00:00 / 00:00
    outros vídeos desta música
    repetir qualidade Automático
    Outros vídeos desta música
    00:00 / 00:00
    Automático
    Capítulos
    • Apresentação / Equipamentos
    • Dicas da música
    • Tocando Introdução
    • Dicas Introdução
    • Ensinando Introdução
    • Ensinando Introdução - Parte 1 de 4
    • Ensinando Introdução - Parte 2 de 4
    • Ensinando Introdução - Parte 3 de 4
    • Ensinando Introdução - Parte 4 de 4
    • Acordes Primeira Parte
    • Tocando Primeira Parte
    • Ritmo Primeira Parte
    • Dicas Refrão
    • Acordes Refrão
    • Tocando Refrão
    • Ritmo Refrão
    • Tocando Solo
    • Ensinando Solo
    • Ensinando Solo - Parte 1 de 3
    • Ensinando Solo - Parte 2 de 3
    • Ensinando Solo - Parte 3 de 3
    • Acordes Terceira Parte
    • Tocando Terceira Parte
    • Ritmo Terceira Parte
    • Dicas Finais
    • Tocando a música
    • Encerramento
    OK