Cifra Club

Aprenda

Stop This Train

John Mayer

Cifra: Principal (violão e guitarra)
Tom: D
[Intro] D5(9)  D7M(6)  D7M(6)  D6(9)
        D5(9)  D7M(6)  D7M(6)  D6(9)
        D5(9)  D7M(6)  D7M(6)  D6(9)
        D5(9)  D7M(6)  D7M(6)  D6(9)


Parte 1 de 2

   D5(9)            D7M(6)
E|-------0----------7-----7-----7-----------|
B|-3---3-----3-3----0---0-------0-----------|
G|-2---2-------2--------6-----6-6-----------|
D|-0---x---0---x----0---x---0---x-----------|
A|------------------------------------------|
E|------------------------------------------|
         m   m            m   i


Parte 2 de 2

   D7M(6)           D6(9)
E|-5-----5-----5----0-----0-----0-----------|
B|-0---0-------0----0---0-------0-----------|
G|-----6-----6-6--------2-----2-2-----------|
D|-0---x---0---x----0---x---0---x-----------|
A|------------------------------------------|
E|------------------------------------------|
         m   i            m   i


Parte 1 de 2 (variação)

   D5(9)            D7M(6)
E|-------0----------7-----7-----7-----------|
B|-0h3-3-----3-3----0---0-------0-----------|
G|-2---2-------2/-------6-----6-6-----------|
D|-0---x---0---x----0---x---0---x-----------|
A|------------------------------------------|
E|------------------------------------------|

Parte 2 de 2 (variação)

   D7M(6)           D6(9)
E|-5-----5-----5----0-----0-----0-----------|
B|-0---0-------0----0---0-------0-----------|
G|-----6-----6-6\-------2-----2-2-----------|
D|-0---x---0---x----0---x---0---x-----------|
A|------------------------------------------|
E|------------------------------------------|
         m   i            m   i


[Primeira Parte]

Parte 1 de 2

   G7M              G11+
E|-0h2---2-----2----7-----7-----7-----------|
B|-0h3-3-------3----0---0-------0-----------|
G|-----0-----0-0--------6-----6-------------|
D|------------------------------------------|
A|-----x-------x--------x-------x-----------|
E|-3---x---3---x----3---x---3---x-----------|

Parte 2 de 2

   G9               G6(9)
E|-5-----5-----5----0-----0-----0-----------|
B|-0---0-------0----0---0-------0-----------|
G|-----4-----4----------2-----2-------------|
D|------------------------------------------|
A|-----x-------x--------x-------x-----------|
E|-3---x---3---x----3---x---3---x-----------|

G7M              G11+
    No, I'm not colorblind
G9             G6(9)
   I know the world is black and white

( D5(9)  D7M(6)  D7M(6)  D6(9) )

G7M                  G11+
    I try to keep an open mind
G9                    G6(9)
   But I just can't sleep on this tonight

( D5(9)  D7M(6)  D7M(6)  D6(9) )

[Refrão]

Parte 1 de 8

   Gm7M
E|-2-----2-------0-------0------------------|
B|-3---3-3-----3-------3-------3------------|
G|-3---3-----3-3-----3-3-----3-3------------|
D|------------------------------------------|
A|-----x-------x-------x-------x------------|
E|-3---x---3---x---3---x---3---x------------|

Parte 2 de 8

   Gm7M
E|-2-----3---2---0-------0------------------|
B|-3---3-3---3---3-----3-------3------------|
G|-3---3-------------3-3-----3-3------------|
D|------------------------------------------|
A|-----x-------x-------x-------x------------|
E|-3---x---3---x---3---x---3---x------------|

Parte 3 de 8

  D/F#
E|-----------2---0-------0------------------|
B|-3---------3---3-----3-------3------------|
G|-2-----2-----------3-3-----3-3------------|
D|------------------------------------------|
A|-----x-------x-------x-------x------------|
E|-2---x---2---x---2---x---2---x------------|

Parte 4 de 8

   D/F#
E|-2-----3---2---0---------2----------------|
B|-3-----3---3---3-----3---3---3------------|
G|-2-------------------2---2---2------------|
D|------------------------------------------|
A|-----x-------x-------x-------x------------|
E|-2---x---2---x---2---x---2---x------------|

Parte 5 de 8

   E7(9)
E|-----------2---0-------0------------------|
B|-3-----3---3-3-3-----3-------3------------|
G|-1---1-------1-----1-1-----1-1------------|
D|------------------------------------------|
A|-----x-------x-------x-------x------------|
E|-0---x---0---x---0---x---0---x------------|

Parte 6 de 8

   E7(9)
E|-2-----2-----2---0-----0-----0------------|
B|-3-----3-----3---3-----3-----3------------|
G|-1---1-----1-1---1---1-----1-1------------|
D|------------------------------------------|
A|-----x-------x-------x-------x------------|
E|-0---x---0---x---0---x---0---x------------|

Parte 7 de 8

   A7(4/9)         A7(9)
E|-------0---------------0------------------|
B|-------0---------------0------------------|
G|-7---7-------7---6---6-------6------------|
D|-5---5-----5-5---5---5-----5-5------------|
A|-0---x---0---x---0---x---0---x------------|
E|-----x-------x-------x-------x------------|

Parte 8 de 8

   Am7(9)          A7(9)
E|-------0---------------0------------------|
B|-------0---------------0------------------|
G|-5---5-------5---4---4-------4------------|
D|-5---5-----5-5---5---5-----5-5------------|
A|-0---x---0---x---0---x---0---x------------|
E|-----x-------x-------x-------x------------|

 Gm7M
Stop this train
   Gm7M
I want to get off
        D/F#
And go home again
   D/F#                      E7(9)
I can't take the speed it's moving in
    E7(9)
I know I can't
     A7(4/9) A7(9)     Am7(9)   A7(9)
But hones__tly, won't someone stop this train?

( D5(9)  D7M(6)  D7M(6)  D6(9) )
( D5(9)  D7M(6)  D7M(6)  D6(9) )

[Primeira Parte Variação]

G7M                G11+
    Don't know how else to say it
G9                  G6(9)
   I don't want to see my parents go

( D5(9)  D7M(6)  D7M(6)  D6(9) )

G7M          G11+
    One generation's length away
G9                G6(9)
   From fighting life out on my own

( D5(9)  D7M(6)  D7M(6)  D6(9) )

[Refrão]

Oh, come on
Gm7M
     Stop this train
   Gm7M
I want to get off
        D/F#
And go home again
   D/F#                      E7(9)
I can't take the speed it's moving in
    E7(9)
I know I can't
     A7(4/9) A7(9)     Am7(9)   A7(9)
But hones__tly, won't someone stop this train?

( D5(9)  D7M(6)  D7M(6)  D6(9) )
( D5(9)  D7M(6)  D7M(6)  D6(9) )
( G7M  G11+  G9  G6(9) )
( D5(9)  D7M(6)  D7M(6)  D6(9) )
( G7M  G11+  G9  G6(9) )
( D5(9)  D7M(6)  D7M(6)  D6(9))

[Primeira Parte Variação]

G7M               G11+
    So scared of getting older
G9           G6(9)
   I'm only good at being young

( D5(9)  D7M(6)  D7M(6)  D6(9) )

G7M                G11+
    So I play the numbers game
    G9            G6(9)           D5(9)
To find a way to say my life has just begun

( D7M(6)  D7M(6)  D6(9) )

[Segunda Parte]

Parte 1 de 9

   G7M
E|-2-----2-------2-------2------------------|
B|-3---3-3-----3-------3-------3------------|
G|-4---4-----4-4-----4-4-----4-4------------|
D|------------------------------------------|
A|-----x-------x-------x-------x------------|
E|-3---x---3---x---3---x---3---x------------|

Parte 2 de 9

   Gm7
E|-1-----1-------1-------1------------------|
B|-3---3-3-----3-------3-------3------------|
G|-3---3-----3-3-----3-3-----3-3------------|
D|------------------------------------------|
A|-----x-------x-------x-------x------------|
E|-3---x---3---x---3---x---3---x------------|

Parte 3 de 9

   D/F#
E|-2-----2-------2-------2------------------|
B|-3---3-3-----3-------3-------3------------|
G|-2---2-----2-2-----2-2-----2-2------------|
D|------------------------------------------|
A|-----x-------x-------x-------x------------|
E|-2---x---2---x---2---x---2---x------------|

Parte 4 de 9

   E7(9)
E|-2-----2-------2-------2------------------|
B|-0---0-0-----0-------0-------0------------|
G|-1---1-----1-1-----1-1-----1-1------------|
D|------------------------------------------|
A|-----x-------x-------x-------x------------|
E|-0---x---0---x---0---x---0---x------------|

Parte 5 de 9

   Gm7M
E|-2-----2-------2-------2------------------|
B|-3---3-3-----3-------3-------3------------|
G|-3---3-----3-3-----3-3-----3-3------------|
D|------------------------------------------|
A|-----x-------x-------x-------x------------|
E|-3---x---3---x---3---x---3---x------------|

   Gm7M
E|-0-----0-------0-------0------------------|
B|-3---3-3-----3-------3-------3------------|
G|-3---3-----3-3-----3-3-----3-3------------|
D|------------------------------------------|
A|-----x-------x-------x-------x------------|
E|-3---x---3---x---3---x---3---x------------|

Parte 6 de 9

   D/F#
E|-2-----2-------2-------2-----------------|
B|-3---3-3-----3-------3-------3-----------|
G|-2---2-----2-2-----2-2-----2-2-----------|
D|-----------------------------------------|
A|-----x-------x-------x-------x-----------|
E|-2---x---2---x---2---x---2---x-----------|

   D/F#
E|-0-----0-------0-------0-----------------|
B|-3---3-3-----3-------3-------3-----------|
G|-2---2-----2-2-----2-2-----2-2-----------|
D|-----------------------------------------|
A|-----x-------x-------x-------x-----------|
E|-2---x---2---x---2---x---2---x-----------|

Parte 7 de 9

   E7(9)
E|-2-----2-------2-------2-----------------|
B|-3---3-3-----3-------3-------3-----------|
G|-1---1-----1-1-----1-1-----1-1-----------|
D|-----------------------------------------|
A|-----x-------x-------x-------x-----------|
E|-0---x---0---x---0---x---0---x-----------|

   E7(9)
E|-0-----0-------0-------0-----------------|
B|-3---3-3-----3-------3-------3-----------|
G|-1---1-----1-1-----1-1-----1-1-----------|
D|-----------------------------------------|
A|-----x-------x-------x-------x-----------|
E|-0---x---0---x---0---x---0---x-----------|

Parte 8 de 9  

   A7(4/9)         A7(9)
E|-------0---------------0-----------------|
B|-------0---------------0-----------------|
G|-7---7-------7---6---6-------6-----------|
D|-5---5-----5-5---5---5-----5-5-----------|
A|-0---x---0---x---0---x---0---x-----------|
E|-----x-------x-------x-------x-----------|

Parte 9 de 9  

   Am7(9)          A7(9)
E|-------0---------------0-----------------|
B|-------0---------------0-----------------|
G|-5---5-------5---4---4-------4-----------|
D|-5---5-----5-5---5---5-----5-5-----------|
A|-0---x---0---x---0---x---0---x-----------|
E|-----x-------x-------x-------x-----------|

G7M
    Had a talk with my old man
Gm7
    Sayin' "help me understand"
D/F#
    He said "turn sixty-eight
    E7(9)
Oh!       you renegotiate"

  Gm7M
"Don't stop this train
                                D/F#
Don't for a minute change the place you're in
                            E7(9)
Don't think I couldn't ever understand

I tried my hand
       A7(4/9) A7(9)    Am7(9) A7(9)
John, hones__tly we'll never stop this train"

( D5(9)  D7M(6)  D7M(6)  D6(9) )
( D5(9)  D7M(6)  D7M(6) )

[Terceira Parte]
 
D6(9)    G          A7(11)          Bm13
Oh! Now, once in awhile, when it's good
       A7(11)/C#     G
It'll feel like it should
            A7(11)      Bm13
And they're all still around
             A7(11)/C#     G
And you're still safe and sound
         A7(11)        Bm13
And you don't miss a thing
           A7(11)/C#
Till you cry

[Parte Final]

              D11     Am11       Em7(9)
When you're driving away in the dark

Singing

[Refrão]

Gm7M
     Stop this train

I want to get off
             D/F#
And go back home again
                                      E7(9)
I can't take the speed this thing is moving in

I know I can't
       A7(4/9)  A7(9)    Am7(9)       A7(9)
Cause now I    see I'll never gonna stop this train

( D5(9)  D7M(6)  D7M(6) )

 D6(9)                D5(9)
Never gonna stop this       train

( D7M(6)  D7M(6) )

          D6(9)                D5(9)
Oh, I'll never gonna stop this       train

( D7M(6)  D7M(6) )

          D6(9)                D5(9)
Oh, I'll never gonna stop this       train

( D7M(6)  D7M(6) )

          D6(9)                D5(9)
Oh, I'll never gonna stop this       train

( D7M(6)  D7M(6)  D6(9)  D5(9) )
Composição de John Mayer
Colaboração e revisão:
227.688 exibições
  • Simplificar cifra
    • ½ Tom
    • A
    • Bb
    • B
    • C
    • Db
    • D
    • Eb
    • E
    • F
    • F#
    • G
    • Ab
  • Adicionar à lista

    0 comentários

    Mostrar mais comentários

    Conseguiu tocar?

    30 Tocaram 6 Ainda não

    Grave um vídeo tocando Stop This Train e mande pra gente!

    00:00 / 00:00
    outros vídeos desta música
    repetir qualidade Automático
    Outros vídeos desta música
    00:00 / 00:00
    Automático
    Capítulos
    • Início
    • Tocando a música
    • Acordes da Introdução
    • Tocando Introdução
    • Ensinando Padrão Rítmico
    • Ensinando Introdução
    • Acordes da Primeira Parte
    • Tocando Primeira Parte
    • Ensinando Primeira Parte
    • Acordes do Refrão
    • Tocando Refrão
    • Ensinando Refrão
    • Acordes da Segunda Parte
    • Tocando Segunda Parte
    • Ensinando Segunda Parte
    • Acordes da Terceira Parte
    • Tocando Terceira Parte
    • Ensinando Terceira Parte
    • Acordes do Final
    • Tocando Final
    • Ensinando Final
    • Encerramento

    Cifra Club Pro

    Aproveite o Cifra Club com benefícios exclusivos e sem anúncios
    7 dias grátis
    Cifra Club Pro
    Aproveite o Cifra Club com benefícios exclusivos e sem anúncios
    7 dias grátis
    OK