Cifra Club

Aprenda

Who Says

John Mayer

Cifra: Principal (violão e guitarra)
tom: D
[Primeira Parte]

D9          G        D/F# 
Who says I can't get stoned?
Em7                 A      A#°             
Turn off the lights and the telephone
Bm7     E    
Me, in my house alone 
G           A        D9
Who says I can't get stoned?

D9          G     D/F#
Who says I can't be free?
Em7                     A     A#°
From all of the things that I used to be
Bm7         E
Re-write my history
G          A      D9
Who says I can't be free?

[Parte 1 de 7]
   D9              G       D/F#
E|------0-----------------------------------|
B|-3--3-----3--3---3---3---3----------------|
G|----2---2-2------0-------2----------------|
D|-0--x--0--x-------------------------------|
A|------------------------------------------|
E|-------------3---x---2---x----------------|

[Parte 2 de 7]
   Em7         A      A#°  Bm7                      
E|------------------------------------------|
B|-3----3------2--2---2---2--2h3-3-3--------|
G|----0-----0-----2-------0------2-------2--|
D|----2---2-2--------------------------4-4--|
A|-------------0--x---1---x--2---x---2---x--|
E|-0--x--0--x-------------------------------|

[Parte 3 de 7]
   E            G     A     D9
E|------0-----------------------0-----------|
B|----0-----0--3--0--2--2--3--3------3------|
G|-1--1---1-1-----1-----2-----2----2-2------|
D|-------------------------0--x---0--x------|
A|-------------------0--x-------------------|
E|-0--x--0--x--3--x-------------------------|

[Parte 4 de 7]
   
E|-----0-----------0-----------0------------|
B|-3--3-----3--3--3-----3--3--3-----3-------|
G|----2---2-2-----2---2-2-----2---2-2-------|
D|-0--x--0--x--0--x--0--x--0--x--0--x-------|
A|------------------------------------------|
E|------------------------------------------|

[Parte 5 de 7]
   G       D/F#    Em7         
E|------------------------------------------|
B|-3---3---3---3---3---3---3-----3-----3----|
G|-----0-------2-------2-------2-------0----|
D|-----------------------------2-----2------|
A|------------------------------------------|
E|-3---x---2---x---0---x---0---x---0---x----|

[Parte 6 de 7]
   A       A#°     Bm7
E|------------------------------------------|
B|-2---2---2---2---2h3-3-3------------------|
G|-----2-------0-------2-------2------------|
D|---------------------------4-4------------|
A|-0---x---1---x---2---x---2---x------------|
E|------------------------------------------|

[Parte 7 de 7]
   E            G     A     D9
E|------0------------------------0----------|
B|-----------0--3--3--2--2--3--3------3-----|
G|-1--1---1--1-----0-----2-----2----2-2-----|
D|----2---------------------0--x---0--x-----|
A|--------------------0--x------------------|
E|-0--x--0---x--3--x------------------------|

[Refrão]

             G   D/F#              A       
It's been a long night in New York city
            G5(9) D/F#           A
It's been a long night in Baton Rouge
G5(9)   D/F#     A#°             Bm7
I don't remember you looking any better
Em7              A     D9       A4
But then again I don't remember you

[Parte 1 de 6]
   G            D/F#         A
E|------------------------------------------|
B|-3---3---3---3-3----3--3---2---2-----3-3--|
G|-----0-------0----2-2----2-----2-2-----2--|
D|------------------------------------------|
A|---------------------------0---x---0---x--|
E|-3---x---3---x---2--x---2--x--------------|

[Parte 2 de 6]
                    G5(9)        D/F#  A             
E|------------------------------------------|
B|-2-----------2h3--3--3----3-3--3-3--------|
G|-----4p2-----2-------2-2----2----2-2------|
D|---------2--------------------------------|
A|---0-------0-------------------------0----|
E|------------------3--x--3--x--2--x--------|

[Parte 3 de 6]
E|------------------------------------------|
B|-3p2----------2---3-----------------------|
G|-----4p2------2---2-----------------------|
D|---------2--------------------------------|
A|-----------x----0----x--------------------|
E|------------------------------------------|

[Parte 4 de 6]
G5(9)            D/F#          A#°
E|------------------------------------------|
B|-3--3-----3-3--3--3-----3-3--2----2-------|
G|----2-2-----2-----2-2-----2-----0---------|
D|--------------------------------2---2-2---|
A|-----------------------------1--x--1--x---|
E|-3--x---3---x--2--x---2---x---------------|

[Parte 5 de 6]
   Bm7             Em7
E|------------------------------------------|
B|-2h3-3-3---------3------------3-----3-----|
G|-----2------2--2----0--0----0-------0-----|
D|---------------4----2-----2-2----2--------|
A|-2---x----2----x--------------------------|
E|-----------------0--x---0---x---0---x-----|

[Parte 6 de 6]
          A     D/F#   A4
E|---------------------0--------------------|
B|--------2--2--3--3---3--------------------|
G|-----0-----2-----2---2--------------------|
D|---2-2---------------2--------------------|
A|--------0--x--0--x---0--------------------|
E|-0---x------------------------------------|

[Segunda Parte]

D9          G        D/F#
Who says I can't get stoned?
Em7                   A       A#°
Call up a girl that I used to know
Bm7              E   
Fake love for an hour or so
G           A        D9
Who says I can't get stoned?

D9          G         D/F#
Who says I can't take time?
Em7                       A      A#°
Meet all the girls on the county line
Bm7          E
Wait on fate to send a sign
G           A         D9
Who says I can't take time?

[Parte 1 de 7]
   D9              G       D/F#
E|------0-----------------------------------|
B|-3--3-----3--3---3---3---3----------------|
G|----2---2-2------0-------2----------------|
D|-0--x--0--x-------------------------------|
A|------------------------------------------|
E|-------------3---x---2---x----------------|

[Parte 2 de 7]
   Em7         A      A#°  Bm7                      
E|------------------------------------------|
B|-3----3------2---2---2---2--2h3-3-3-------|
G|----0-----0------2-------0------2-------2-|
D|----2---2-2---------------------------4-4-|
A|-------------0---x---1---x--2---x---2---x-|
E|-0--x--0--x-------------------------------|

[Parte 3 de 7]
   E           G     A     D9
E|------0-----------------------0-----------|
B|----0-----0--3--0--2--2--3--3------3------|
G|-1--1---1-1-----1-----2-----2----2-2------|
D|-------------------------0--x---0--x------|
A|-------------------0--x-------------------|
E|-0--x--0--x--3--x-------------------------|

[Parte 4 de 7]

E|--------------------------0h2---2---------|
B|-3--3-3---3--3--3-3---3------3-------3----|
G|----2---2-2-----2---2-2------2-----2-2----|
D|-0--x--0--x--0--x--0--x---0--x----0--x----|
A|------------------------------------------|
E|------------------------------------------|

[Parte 5 de 7]
  G      D/F#  Em7         A     A#°               
E|-3-----2-----0----------------------------|
B|----3-----3-------3------2--2--2--2-------|
G|----0-----2-----0-----0-----2-----0-------|
D|----------------2-----2-------------------|
A|-------------------------0--x--1--x-------|
E|-3--x--2--x--0--x--0--x-------------------|

[Parte 6 de 7]
   Bm7            E               G
E|-------2--------------0-------------------|
B|-2h3-3--------------------------3--3------|
G|-----2-------2--1---1----1--1------0------|
D|-----------4-4------2-------2-------------|
A|-2---x---2---x----------------------------|
E|----------------0---x---0---x---3--x------|

[Parte 7 de 7]
   A     D9
E|-----------0------------------------------|
B|-2--2--3--3-----3--3--3-3----3------------|
G|----2-----2---2-2-----2----2-2------------|
D|-------0--x--0--x--0--x--0---x------------|
A|-0--x-------------------------------------|
E|------------------------------------------|

[Refrão]

            G    D/F#              A
It's been a long night in New York city
            G5(9) D/F#             A
It's been a long night in Austin too
G5(9)       D/F#     A#°         Bm7
I don't remember you looking any better
Em7            A       D9       A 
But then again I don't remember you

[Parte 1]

   G               D/F#
E|------------------------------------------|
B|-3---3----3--3---3---3-----3-3------------|
G|-----0-0-----0-------2-2-----2------------|
D|------------------------------------------|
A|------------------------------------------|
E|-3---x---3---x---2---x---2---x------------|

[Parte 2]

   A
E|------------------------------------------|
B|-2---2-----3p2-------3p2------------------|
G|-----2-2------4p2--------4p2--------------|
D|------------------2-----------------------|
A|-0---x---0----------0---------------------|
E|------------------------------------------|

[Parte 3]

  G5(9)          D/F#           A
E|------------------------------------------|
B|-3--3----3-3---3---3----3--3--2--2--------|
G|----2-2----2-------2-2-----2-----2-2------|
D|------------------------------------------|
A|------------------------------0--x--0-----|
E|-3--x--3---x---2---x---2---x--------------|

[Parte 4]

                      G
E|------------------------------------------|
B|-3p2----------------3---3-3-----3---------|
G|----4p2---2p0-----------0-------0---------|
D|-------2h5---4p2-2-----------0------------|
A|------------------------------------------|
E|--------------------3---x---3---x---------|

[Parte 5]

   D/F#            A#°  
E|------------------------------------------|
B|-3---3-3---------2------------------------|
G|-----2-------2-------0-------0------------|
D|-----------0-0-------2-----2-2------------|
A|-----------------1---x---1---x------------|
E|-2---x---2---x----------------------------|

[Parte 6]

   Bm7            Em7
E|-------2--------------------2---0---------|
B|-2h3-3----------3--3-3----3-------3-3-----|
G|-----2-----2-2-----0------0-------0-------|
D|-------------4----------2-----------------|
A|-2---x---2---x----------------------------|
E|----------------0--x--3---x---0---x---0---|

[Parte 7]

                           A  
E|-----2---0--------------------------------|
B|---3-------3-3-----3--2--2----------------|
G|---0-------0-------0-----2----------------|
D|-2---------------2------------------------|
A|----------------------0--x----------------|
E|---x---0---x---0---x----------------------|

[Parte 8]
                
   D9           A
E|------------------------------------------|
B|-3--3-3-----3-2-----2---------------------|
G|----2-----2-2-------2---------------------|
D|------------------2-----------------------|
A|-0--x---0---x---0---x---------------------|
E|------------------------------------------|

[Interlude]

[Parte 1]

   G             A4    A     D9
E|-------------------------------0----------|
B|-0h3-3-3----3--3--3--2--2--3--3------3----|
G|-----0------0-----2-----2-----2----2-2----|
D|----------0----------------0--x--0---x----|
A|---------------0--x--0--x-----------------|
E|-3---x---3--x-----------------------------|

[Parte 2]

               G            D/F#    
E|-0----------------------------------------|
B|----3-3----3-3--3----3-3--3--3---3-3------|
G|----2----2-2----0-0----0-----2-2---2------|
D|-0--x--0---x------------------------------|
A|------------------------------------------|
E|-------------3--x--3---x--2--x--2--x------|

[Parte 3]

   A
E|------------------------------------------|
B|-2--2---3p2--------3p2--------------------|
G|----2-2----4p2--------4p2-----------------|
D|---------------2--------------------------|
A|-0--x--0---------0------------------------|
E|------------------------------------------|

[Parte 4]

   G5(9)        D/F#          A
E|------------------------------------------|
B|-3--3----3-3--3--3-----3-3--2--2----------|
G|----2-2----2-----2-2-----2-----2-2--------|
D|------------------------------------------|
A|----------------------------0--x---0------|
E|-3--x--3---x--2--x---2---x----------------|

[Parte 5]

   G            D/F#         A#°
E|------------------------------------------|
B|-3--3-3----3--3--3-3----3--2----2---------|
G|----0------0-----2------2-----0------0----|
D|---------0--------------------2----2-2----|
A|----------------------0----1--x---1--x----|
E|-3--x--3---x--2--x--2---x-----------------|

[Parte 6]

   Bm7            Em7
E|-------2-------------------2----0---------|
B|-2h3-3----------3--3-3----3------3-3------|
G|-----2-----2-2-----0------0------0------0-|
D|-------------4----------2-------------2-2-|
A|-2---x---2---x----------------------------|
E|----------------0--x---0--x--0---x---0--x-|

[Parte 7]

   A            A4
E|--------------0---------------------------|
B|-2--2--3------3---------------------------|
G|----2-----2---2---------------------------|
D|--------------2---------------------------|
A|-0--x--0--x---0---------------------------|
E|------------------------------------------|

[Terceira Parte]

D9          G        D/F#
Who says I can't get stoned?
Em7            A     A#°
Plan a trip to Japan alone
Bm7            E
Doesn't matter if I even go
G           A        D9
Who says I can't get stoned?

[Parte 1]

   D9          G     D/F#  Em7 
E|-----0------------------------------------|
B|-3--3-----3--3--3--3--3--3----3-----3-----|
G|----2---2-2-----2-----2-----0-------0-----|
D|-0--x--0--x-----------------2-----2-------|
A|------------------------------------------|
E|-------------3--x--2--x--0--x---0---x-----|

[Parte 2]

   A     A#°   Bm7           E              
E|------------------2------------0----------|
B|-2--2--2--1--2h3-3------------0-----0-----|
G|----2-----0------2----2-2--1--1---1-1-----|
D|------------------------4-----------------|
A|-0--x--1--x--2---x--2---x-----------------|
E|---------------------------0--x--0--x-----|

[Parte 3]
   G           D9
E|-----------------0------------------------|
B|-3--3--2--2--3--3------3--3--3-3---3------|
G|----0-----2-----2----2-2-----2---2-2------|
D|-------------0--x--0---x--0--x--0--x------|
A|-------0--x-------------------------------|
E|-3--x-------------------------------------|

[Parte 4]

E|------------------------------------------|
B|-3--3-3-----3--3--3-3----3----------------|
G|----2-----2-2-----2----2-2----------------|
D|-0--x---0---x--0--x---0--x----------------|
A|------------------------------------------|
E|------------------------------------------|

[Refrão]

            G   D/F#               A
It's been a long night in New York city
            G5(9) D/F#       A
It's been a long time since 22
G5(9)   D/F#     A#°             Bm7       
I don't remember you looking any better
Em7              A     
But then again I don't remember, I don't remember you

[Parte 1]

   G           D/F#         A                                 
E|------------------------------------------|
B|-3--3---3-3--3--3----3-3--2--2-----3-3-2--|
G|----0-0---0-----2-2----2-----2-2-----2----|
D|------------------------------------------|
A|--------------------------0--x---0---x--0-|
E|-3--x--3--x--2--x--2---x------------------|

[Parte 2]

   G5(9)         D/F#          A
E|------------------------------------------|
B|-3--3-----3-3--3--3-----3-3--2--2-2---2-3-|
G|----2-2-----2-----2-2-----2-----2-----2---|
D|------------------------------------------|
A|-----------------------------0--x--0--x---|
E|-3--x---3---x--2--x---2---x---------------|

[Parte 3]

     
E|------------------------------------------|
B|---2h3-2h3-2---2-2------------------------|
G|---2---2---2---2--------------------------|
D|-------------2----------------------------|
A|---0---x---0---x--------------------------|
E|------------------------------------------|

[Parte 4]

   G             D/F#        A#°
E|------------------------------------------|
B|-3--3-3-----3--3--3-3----3--2----2--------|
G|----0-------0-----2------2-----0-----0----|
D|----------0------------0-------2---2-2----|
A|----------------------------1--x--1--x----|
E|-3--x---3---x--2--x---2--x----------------|

[Parte 5]

   Bm7          Em7
E|------2---------------------0-------------|
B|-2h3-3--------3---------------------------|
G|-----2---2-2------0-0-----0-------0-------|
D|-----------4------2-----2-2-----2-2-------|
A|-2---x--2--x------------------------------|
E|--------------0---x---0---x---0---x-------|

[Parte 6]          

           A
E|------------------------------------------|
B|---------2---2-2-----2-2-----2-2-----2----|
G|-----0-------2-------2-------2-------2----|
D|---2-2-------------2-------2-------2------|
A|---------0---x---0---x---0---x---0---x----|
E|-0---x------------------------------------|

[Final]

[Parte 1]

   G             A4      A      D
E|------------------------------------------|
B|-3---3---------3---3---2---2--3--3-3----3-|
G|-----0-0-----0-----2-------2-----2----2-2-|
D|-----------0-0----------------0--x---0--x-|
A|---------------0---x---0---x--------------|
E|-3---x---3---x----------------------------|

[Parte 2]

   G       D/F#   D              G
E|----------------------0---2---------------|
B|-3---3---3---3--3---3-------3--3-----3----|
G|-----0-------2------2-------2------0-0----|
D|----------------0---x---0---x-------------|
A|------------------------------------------|
E|-3---x---2---x-------------------3---x----|

[Parte 3]

   D/F#     D             G       D/F#
E|---------------3---2----------------------|
B|-3----3---3--3-------3--3---3---3---3-----|
G|------2-2----2-------2------2-------2-----|
D|----------0--x---0---x--------------------|
A|------------------------------------------|
E|--2---x-----------------3---x---2---x-----|

[Parte 4]

   D
E|-2----------------------------------------|
B|-3----------------------------------------|
G|-2----------------------------------------|
D|-0----------------------------------------|
A|------------------------------------------|
E|------------------------------------------|
Composição de John Mayer
Colaboração e revisão:
  • Natan souza
  • Yapoã Rocha
  • steingt s
76.598 exibições
    • ½ Tom
    • A
    • Bb
    • B
    • C
    • Db
    • D
    • Eb
    • E
    • F
    • F#
    • G
    • Ab
  • Adicionar à lista

    0 comentários

    Ver todos os comentários

    Conseguiu tocar?

    32 Tocaram 1 Ainda não

    Grave um vídeo tocando Who Says e nos envie!

    00:00 / 00:00
    Outros vídeos desta música
    Repetir Qualidade Automático
    Outros vídeos desta música
    00:00 / 00:00
    Automático
    Capítulos
    • Tocando a Música
    • Apresentação / Equipamentos
    • Acordes da Música
    • Tocando Primeira Parte
    • Ensinando Ritmo da Música
    • Tocando Refrão
    • Ensinando Refrão
    • Tocando Segundo Refrão
    • Tocando Terceira Parte
    • Tocando Refrão Final
    • Encerramento

    Cifra Club Pro

    Aproveite o Cifra Club com benefícios exclusivos e sem anúncios
    Cifra Club Pro
    Aproveite o Cifra Club com benefícios exclusivos e sem anúncios
    OK