Cifra Club

Wild Blue

John Mayer

Cifra: Principal (violão e guitarra)
tom: Am
[Intro] Am  G  C  G  F  F7M  F  Dm/F
        Am  G  C  G  F  F7M  F  Dm/F

[Tab - Intro]

Parte 1 De 4
   Am      G    C            G    F    F7M     F 
E|-5--5----3---------------------------0--0-----------|
B|-5--5----3----5----5--5----3----1----1--1----1------|
G|-5--5----4----5----5--5----4----2----2--2----2------|
D|-7--7---------5----5--5----5----3----3--3----3------|
A|----------------------------------------------------|
E|----------------------------------------------------|

Parte 2 De 4
   Dm/F
E|--------1p0-----------------------------------------|
B|-3---3---------1------------------------------------|
G|-2---2-------2--------------------------------------|
D|-3--------------------------------------------------|
A|----------------------------------------------------|
E|----------------------------------------------------|

Parte 3 De 4
   Am      G    C            G    F    F7M     F 
E|-5--5----3---------------------------0--0-----------|
B|-5--5----3----5----5--5----3----1----1--1----1------|
G|-5--5----4----5----5--5----4----2----2--2----2------|
D|-7--7---------5----5--5----5----3----3--3----3------|
A|----------------------------------------------------|
E|----------------------------------------------------|

Parte 4 De 4
   Dm/F
E|----------------------------------------------------|
B|-3--1--3-----3--1--3--------------------------------|
G|-2--0--2-----2--0--2--------------------------------|
D|-3--3--3-----3--3--3--------------------------------|
A|----------------------------------------------------|
E|----------------------------------------------------|

[Primeira Parte] 

 Am             C         F
Never seen the Sun before
             Dm          Am
Lying on the ocean floor
                         C         F
I'm walking through the wilderness
           Dm
And living off the loneliness, oh

[Refrão] 

[Tab - Refrão] 

Parte 1 De 3
   G           C            F         
E|-------3--1--0-----0--------------------------------|
B|----3-----------------3---1-----------0h1-----------|
G|-4--------------0------------2-----2-------2-----2--|
D|--------------------------------3-------------3-----|
A|----------------------------------------------------|
E|----------------------------------------------------|

Parte 2 De 3
   G           C            F         
E|-------3--1--0-----0--------------------------------|
B|----3-----------------3---1-----------0h1-----------|
G|-4--------------0------------2-----2-------2-----2--|
D|--------------------------------3-------------3-----|
A|----------------------------------------------------|
E|----------------------------------------------------|

Parte 3 De 3
   G           C            F         
E|-------3--1--0-----0--------------------------------|
B|----3-----------------3---1-------------------------|
G|-4--------------0------------2-----2----------------|
D|--------------------------------3-------------------|
A|----------------------------------------------------|
E|----------------------------------------------------|

 G        C
Wild blue
              F
Deeper than I ever knew
 G        C
Wild blue 
              F 
On a bed of grey

Oh, baby, what a
 G        C
Wild blue
                    F
I found myself when I lost you

[Ponte] Em  F  Em  F  G 

[Tab - Ponte]

     Em       F     Em          F        G         Am
E|----------------------------------------------------|
B|------1--0--------------1--0-----0--1--3--1--0------|
G|---0--------2-----0--0--------2------------------2--|
D|----------------------------------------------------|
A|----------------------------------------------------|
E|----------------------------------------------------|

( Am  G  C  G  F  F7M  F  Dm/F )

[Segunda Parte] 

Am               C           F
All the tears I meant to cry
                 Dm          Am
Dance across the evening sky
                 C         F
And in my sorrow I can see
                    Dm
That missing you belongs to me, oh

[Refrão] 

[Tab- Refrão] 

Parte 1 De 3
   G           C            F         
E|-------3--1--0-----0--------------------------------|
B|----3-----------------3---1-----------0h1-----------|
G|-4--------------0------------2-----2-------2-----2--|
D|--------------------------------3-------------3-----|
A|----------------------------------------------------|
E|----------------------------------------------------|

Parte 2 De 3
   G           C            F         
E|-------3--1--0-----0--------------------------------|
B|----3-----------------3---1-----------0h1-----------|
G|-4--------------0------------2-----2-------2-----2--|
D|--------------------------------3-------------3-----|
A|----------------------------------------------------|
E|----------------------------------------------------|

Parte 3 De 3
   G           C            F         
E|-------3--1--0-----0--------------------------------|
B|----3-----------------3---1-------------------------|
G|-4--------------0------------2-----2----------------|
D|--------------------------------3-------------------|
A|----------------------------------------------------|
E|----------------------------------------------------|

 G        C
Wild blue
              F
Deeper than I ever knew
 G        C
Wild blue 
              F 
On a bed of grey

Oh, baby, what a
 G        C
Wild blue
                    F
I found myself when I lost you

[Ponte] Em  F  Em  F  G 

[Tab - Ponte]

     Em       F     Em          F        G         
E|----------------------------------------------------|
B|------1--0--------------1--0-----0--1--3--5--8b-----|
G|---0--------2-----0--0--------2---------------------|
D|----------------------------------------------------|
A|----------------------------------------------------|
E|----------------------------------------------------|

[Solo] Am  C  F  Dm 
       Am  C  F  Dm 
       Am  C  F  Dm
       Am  C  F  Dm

[Tab - Solo]

Parte 1 De 5
E|-5--------------------------------------------------|
B|---8p5---8p5----------------------------------------|
G|-------7-----7p5-----7p5-------------------5-4------|
D|-----------------7p5-----7-5h7---5-------------5-7~-|
A|-------------------------------7---5h7-3------------|
E|----------------------------------------------------|

Parte 2 De 5
E|------------------------5-7-8-5-----7-8-10-12-------|
B|------6-6-5-----------8-----------------------------|
G|------------7-7-----5-------------------------12----|
D|--5/7-----------------------------------------------|
A|----------------------------------------------------|
E|----------------------------------------------------|

Parte 3 De 5
E|-12b-12----12-10----10-8----------------------------|
B|---------------------------10b12-10------8----------|
G|-------------------------------------9-7---7~-------|
D|----------------------------------------------------|
A|----------------------------------------------------|
E|----------------------------------------------------|

Parte 4 De 5
E|----------5-----------5-----------5-----------------|
B|----8-----------8-----------8----------8p5---8----5-|
G|-7b----7b----7b----7b----7b----7b----------7---7b---|
D|----------------------------------------------------|
A|----------------------------------------------------|
E|----------------------------------------------------|

Parte 5 De 5
E|----------------------------------------------------|
B|----------------5-----------------------------------|
G|-7-5-7-5---5-7b---7b-5------------------------------|
D|---------7------------------------------------------|
A|----------------------------------------------------|
E|----------------------------------------------------|

[Refrão] 
 
[Tab - Refrão] 

Parte 1 De 3
   G           C         F
E|-------3--1--0---0-------------------8-12-10---8----|
B|----3---------------3--1----1---8/10-------------12-|
G|-4-------------0---------2--------------------------|
D|----------------------------------------------------|
A|----------------------------------------------------|
E|----------------------------------------------------|

Parte 2 De 3
          G          C           F
E|-------------3--1--0-----0----------------7--7\5----|
B|-10-8------3----------------3--1--------------------|
G|--------4-------------0-----------2-------7--7\5----|
D|-------------------------------------3--------------|
A|----------------------------------------------------|
E|----------------------------------------------------|

Parte 3 De 3
                    G           C           F
E|-8--8\7---5\3-----------3--1--0-----0---------------|
B|---------------------3-----------------3--1---------|
G|-9--9\7---5\4-----4--------------0-----------2------|
D|------------------------------------------------3---|
A|----------------------------------------------------|
E|----------------------------------------------------|

 G        C
Wild blue
              F
Deeper than I ever knew
 G        C
Wild blue 
              F 
On a bed of grey

Oh, baby, what a
 G        C
Wild blue
                    F
I found myself when I lost you

[Ponte] Em  F  
        Em  F 
        Em  F  G 

[Tab - Ponte]

     Em       F       
E|----------------------------------------------------|
B|------1--0------------------------------------------|
G|---0--------2~--------------------------------------|
D|----------------------------------------------------|
A|----------------------------------------------------|
E|----------------------------------------------------|

     Em       F     Em          F        G         
E|----------------------------------------------------|
B|------1--0--------------1--0-----0--1--3--1--0------|
G|---0--------2~----0--0--------2-----------------2~--|
D|----------------------------------------------------|
A|----------------------------------------------------|
E|----------------------------------------------------|

     Em            F
And you'll never know
    Em        F         G
The unlikely beauty in letting you go

[Solo] Am  C  F  Dm 
       Am  C  F  Dm 
       Am  C  F  Dm 
       Am  C  F  Dm 
       Am  C  F  Dm   
       Am  C  F  Dm
       Am  C  F  Dm
       Am  C  F  Dm
       Am  C  F  Dm
       Am  C  F  Dm

[Tab - Solo Final]

Parte 1 De 8
E|----------------------------------------------------|
B|-r17b15---------------------------------------------|
G|--------14~-----12-12/14----------------------------|
D|-------------------------14------10/12-----10-------|
A|----------------------------------------12----------|
E|----------------------------------------------------|

Parte 2 De 8
E|--------------10b12r10-8-10b------------8b10--------|
B|-------------------------------------10------10-10~-|
G|----------------------------------------------------|
D|-10/9/7~--------------------------------------------|
A|----------------------------------------------------|
E|----------------------------------------------------|

Parte 3 De 8
E|-10b12-10-8-10b12~---------7b8-7-5~-----------------|
B|----------------------------------------------------|
G|----------------------------------------------------|
D|----------------------------------------------------|
A|----------------------------------------------------|
E|----------------------------------------------------|

Parte 4 De 8
E|---------5--------8-----5-----8-----5-----8----7--5-|
B|-------5---5---5-----5-----5-----5-----5-----5------|
G|---5-7----------------------------------------------|
D|-7--------------------------------------------------|
A|----------------------------------------------------|
E|----------------------------------------------------|

Parte 5 De 8
E|------5-------------------------8-----5-------------|
B|-\10-------\10--10~---------5------5-----5----------|
G|--------------------------5---5---------------------|
D|----------------------------------------------------|
A|----------------------------------------------------|
E|----------------------------------------------------|

Parte 6 De 8
E|-10--8--7-------------------------------------------|
B|-----------10---------------------------------------|
G|-------------------7/9--7--9--9---------------5-----|
D|------------------------------------------7-7---7~--|
A|----------------------------------------------------|
E|----------------------------------------------------|

Parte 7 De 8
E|----------------------------------------------------|
B|----------------------13-----------15b-15-13-15-----|
G|-----7----------12-14----14~--------------------14~-|
D|-5h7---7~-------------------------------------------|
A|----------------------------------------------------|
E|----------------------------------------------------|

Parte 8 De 8
E|------------------15--------------------------------|
B|-15b17r15b17~--------15b17r15-13-15-----------------|
G|------------------------------------14~-------------|
D|----------------------------------------------------|
A|----------------------------------------------------|
E|----------------------------------------------------|

E|----------------------------------------------------|
B|-13b15-13-------------------------------------------|
G|----------14----------------------12/14~------------|
D|-------------------------14\12-10-------------------|
A|----------------------------------------------------|
E|----------------------------------------------------|
00:00 / 00:00
Outros vídeos desta música
Repetir
Outros vídeos desta música
Composição de John Mayer
Colaboração e revisão:
  • Getúlio Vasconcelos
5.802 exibições
  • Simplificar cifra
    • ½ Tom
    • Am
    • Bbm
    • Bm
    • Cm
    • C#m
    • Dm
    • Ebm
    • Em
    • Fm
    • F#m
    • Gm
    • G#m
  • Adicionar à lista

    0 comentários

    Ver todos os comentários

    Conseguiu tocar?

    4 Tocaram 0 Ainda não

    Grave um vídeo tocando Wild Blue e nos envie!

    Entre para oCifra Club PRO

    Tenha acesso a benefícios exclusivos no App e no Site

    • Chega de anúncios

    • Prioridade de compra em lançamentos

    • Mais recursos no app do Afinador

    • Atendimento Prioritário

    • Descontos nos produtos Cifra Club

    • Ajude a produzir mais conteúdo

    00:00 / 00:00

    Cifra Club Pro

    Aproveite o Cifra Club com benefícios exclusivos e sem anúncios
    Cifra Club Pro
    Aproveite o Cifra Club com benefícios exclusivos e sem anúncios
    OK