Cifra Club

Attention

Joji

Cifra: Versão 2 (violão e guitarra)
tom: G
Primeira Parte:
E|----------------------10-----------------10------|
B|--------------7--------------------7-------------|
G|-----------------------------------0-------------| x3
D|--------------0----------------------------------|
A|-------------------------------------------------|
E|-------------------------------------------------|
 
Segunda Parte:
E|------------7----------12--------10---|
B|---7----------------------------------|
G|--------------------------------------| x1
D|--------------------------------------|
A|---0----------------------------------|
E|--------------------------------------|


(Repita durante toda a música)
00:00 / 00:00
Outros vídeos desta música
Repetir
Outros vídeos desta música
Compositor não encontrado.
Colaboração e revisão:
  • Hayashi
    • ½ Tom
    • A
    • Bb
    • B
    • C
    • Db
    • D
    • Eb
    • E
    • F
    • F#
    • G
    • Ab
  • Adicionar à lista

    0 comentários

    Ver todos os comentários

    Conseguiu tocar?

    0 Tocaram 0 Ainda não

    Grave um vídeo tocando Attention e nos envie!

    Relacionados

    00:00 / 00:00

    Cifra Club Pro

    Aproveite o Cifra Club com benefícios exclusivos e sem anúncios
    Cifra Club Pro
    Aproveite o Cifra Club com benefícios exclusivos e sem anúncios
    OK