Cifra Club

January Man

Jon Boden

Cifra: Principal (violão e guitarra)
Selo Cifra Club: esta cifra foi revisada para atender aos critérios oficiais da nossa Equipe de Qualidade.
tom: F
The January man, he walks the road in woollen coat and boots of leather,
E|---------------------------------------------|
B|---------------------------------------------|
G|---------5-7---7-5---------------------------|
D|-7-7-5-7-----------7-5-----------------------|
A|-----------------------8-7-5---5-7-8-7h8p7-5-|
E|-----------------------------8---------------|

The February man still wipes the snow from off his hair and blows his hands,
E|-------------------------------------------|
B|-------------------------------------------|
G|---------5---------------------------------|
D|-7-7-5-7---7-5-----------------------5-7---|
A|---------------8-7-5---7-8-7-5---7-8-------|
E|-------------------------------------------|

The man of March he sees the Spring and wonders what the year will bring,
E|-------------------------------------|
B|-----------5-------------------------|
G|---5-7-7-7---7-5---------------------|
D|-7---------------7---7h8-7-5---------|
A|-----------------------------8-7-----|
E|---------------------------------8---|

And hopes for better weather,
E|-------------------------|
B|-------------------------|
G|-------------------------|
D|-------------------------|
A|---5-7--8-7-8--7h8p7-5---|
E|-8-----------------------|
Outros vídeos desta música
    0 exibições
      • ½ Tom
      • A
      • Bb
      • B
      • C
      • Db
      • D
      • Eb
      • E
      • F
      • F#
      • G
      • Ab
    • Adicionar à lista

    Afinação da cifra

    Afinador online

      0 comentários

      Ver todos os comentários

      Entre para o Cifra Club PRO

      Tenha acesso a benefícios exclusivos no App e no Site

      • Chega de anúncios

      • Badges exclusivas

      • Mais recursos no app do Afinador

      • Atendimento Prioritário

      • Aumente seu limite de lista

      • Ajude a produzir mais conteúdo

      Cifra Club Pro

      Aproveite o Cifra Club com benefícios exclusivos e sem anúncios
      Cifra Club Pro
      Aproveite o Cifra Club com benefícios exclusivos e sem anúncios
      Ops (: Contenido disponible sólo en portugués.
      OK