Cifra Club

Aprenda

Lovebug

Jonas Brothers

Cifra: Principal (violão e guitarra)
tom: E
A música inteira deve ser tocada com dedilhado até o segundo solo feito na guitarra

(se o cifra club nao passar os acordes corretos, eles estão no final, o npumero significa a casa onde vai o dedo)

B                 A               E
Called her for the first time yesterday
B                 A              E
Finally found the missing part of me
B                 A              E
Felt so close but you were far away
B                 A              E
Left me without anything to say

E                                          E5/D#
Now I'm speechless, over the edge, I'm just breathless
                            A                        E
I never thought that I'd catch this love bug again
E                                 E5/D#
Hopeless, head over heels in the moment
                            A                          E
I never thought that I'd get hit by this love bug again

Solo: E B A E B A E

B                 A               E
I can't get your smile out of my mind
B                 A               E
I think about your eyes all the time
B                 A               E
You're beautiful but you don't even try
B                 A               E
Modesty is just so hard to find

E                                          E5/D#
Now I'm speechless, over the edge, I'm just breathless
                            A                        E
I never thought that I'd catch this love bug again
E                                 E5/D#
Hopeless, head over heels in the moment
                            A                          E
I never thought that I'd get hit by this love bug again

B                  A               E
Kissed her for the first time yesterday
B                  A               E
Everything I wished that it would be
B                  A           E
Suddenly you forgot how to speak.
B                   A                  E
Hopeless, breathless baby can't you see?

Now I'm...

Solo: E E5/D# A B

E                                          E5/D#
Now I'm speechless, over the edge, I'm just breathless
                            A                        E
I never thought that I'd catch this love bug again
E                                 E5/D#
Hopeless, head over heels in the moment
                            A                          E
I never thought that I'd get hit by this love bug again
A         B           E
Ohh Ohh… Love bug again
Solo 1:
E|----------------------9-7------------------6/7-7-7-7-6/7-7-7-7-----|
B|-4-5-5-5-4-2-0----7-9--------4-5-5-5-4-2-0-------------------------|
G|-------------------------------------------------------------------|
D|-------------------------------------------------------------------|
A|-------------------------------------------------------------------|
E|-------------------------------------------------------------------|

Solo 2:
E|-------------------------------------------------------------------------|
B|--------9~-9-10-12-10-9------------9~-9-10-12-10-9-----------------------|
G|--11b13-----------------9----11b13-----------------11-11b13-11b13r-9-----|
D|---------------------------------------------------------------------11--|
A|-------------------------------------------------------------------------|
E|-------------------------------------------------------------------------|

E|--------------------------------------------------12-----------|
B|-------------------------------10b12-10b12--12-14----14-12-10--|
G|-------9-9b11-9b11r-9------------------------------------------|
D|--9-11----------------11-9~------------------------------------|
A|---------------------------------------------------------------|
E|---------------------------------------------------------------|

E|-----------------12----------------------------------------12/14-12-12----------|
B|-10b12-12--12-14----14-12-10--10-12b14-10---------10-10/12------------14-12-10~-|
G|-----------------------------------------11--9h11-------------------------------|
D|--------------------------------------------------------------------------------|
A|--------------------------------------------------------------------------------|
E|--------------------------------------------------------------------------------|

E|-----------|
B|-----------|
G|--9-9------|
D|--9-9-7-2--|
A|--7-6-7-2--|
E|------5-0--|

E|---------------|
B|---------------|
G|-9-9---9-----9-|
D|-9-9-7-9-7-9-9-|
A|-7-6-7-7-7-9-7-|
E|-----5---5-7---|
Composição de Joe Jonas / Kevin Jonas II / Nick Jonas
Colaboração e revisão:
58.074 exibições
    • ½ Tom
    • A
    • Bb
    • B
    • C
    • Db
    • D
    • Eb
    • E
    • F
    • F#
    • G
    • Ab
  • Adicionar à lista

    0 comentários

    Ver todos os comentários

    Conseguiu tocar?

    20 Tocaram 2 Ainda não

    Grave um vídeo tocando Lovebug e nos envie!

    00:00 / 00:00
    Outros vídeos desta música
    Repetir Qualidade Automático
    Outros vídeos desta música
    00:00 / 00:00
    Automático

    Cifra Club Pro

    Aproveite o Cifra Club com benefícios exclusivos e sem anúncios
    Cifra Club Pro
    Aproveite o Cifra Club com benefícios exclusivos e sem anúncios
    OK