Cifra Club

Shelf

Jonas Brothers

Cifra: Principal (violão e guitarra)
tom: G
Intro:

E|--2--5--12--10--2----2--3--2--0-----2--5--12--10--8----2--3--2--0----|
B|---------------------------------3---------------------------------3-|
G|---------------------------------------------------------------------|
D|---------------------------------------------------------------------|
A|---------------------------------------------------------------------|
E|---------------------------------------------------------------------|

E|-------------------------------------------------------------|
B|--0--3--5--3-----3--5--8--7----7--8--5--3--0-----------------|
G|--------------3-------------------------------2--0-----------|
D|----------------------------------------------------4--------|
A|-------------------------------------------------------------|
E|-------------------------------------------------------------|



Verse 1:

E|------------------------------------------------------------------------|
B|------------------------------------------------------------------------|
G|------------------------------------------------------------------------|
D|------------------------------------------------------------------------|
A|------------------------------------------------------------------------|
E|--2-x16-----------------3-x8---------5-x4--3-x4--2-x4-------------------|
   She's such a flirt     and I am the    lonely   heart

E|------------------------------------------------------------------------|
B|------------------------------------------------------------------------|
G|------------------------------------------------------------------------|
D|------------------------------------------------------------------------|
A|------------------------------------------------------------------------|
E|--2-x12-----------------3-x8---------5-x4--3-x4--2-x4-------------------|
    Give it a chance      For our      love  to    start

E|------------------------------------------------------------------------|
B|------------------------------------------------------------------------|
G|------------------------------------------------------------------------|
D|------------------------------------------------------------------------|
A|------------------------------------------------------------------------|
E|--2-x8------------------7-x8--5-x8---------------10-x4--9-x4--7-x4------|
  But you'll never see          if you don't give   me     a    shot to

E|------------------------------------------------------------------------|
B|------------------------------------------------------------------------|
G|------------------------------------------------------------------------|
D|-------------5----------------------------------------------------------|
A|-------------5----------------------------------------------------------|
E|--5-x4-------3----------------------------------------------------------|
    show you   what I've got but



Chorus:

E|------------------------------------------------------------------------|
B|------------------------------------------------------------------------|
G|-----7------------------------------------------------------------------|
D|-----7------------4-------------5--------------9------------10----------|
A|-----5------------4-------------5--------------9------------10----------|
E|------------------2-------------3--------------7------------8-----------|
   It's too late to pretend, you know me better than I know myself

E|------------------------------------------------------------------------|
B|------------------------------------------------------------------------|
G|------------------------------------------------------------------------|
D|--------------------------5-----------12-------7-7----5-5---------------|
A|--------------------------5-----------12-------7-7----5-5---------------|
E|--------------------------3-----------10-------5-5----3-3---------------|
   Don't take my heart and put it on a shelf

E|------------------------------------------------------------------------|
B|------------------------------------------------------------------------|
G|-----7------------------------------------------------------------------|
D|-----7------------4----------5-----------------9--------------------10--|
A|-----5------------4----------5-----------------9--------------------10--|
E|------------------2----------3-----------------7--------------------8---|
   Always someone else, the  next guy who will  Make your cold heart melt

E|------------------------------------------------------------------------|
B|------------------------------------------------------------------------|
G|------------------------------------------------------------------------|
D|---------------------5----------------12-------7-7----5-5---------------|
A|---------------------5----------------12-------7-7----5-5---------------|
E|---------------------3----------------10-------5-5----3-3---------------|
   I'm gonna give my love to someone else



Verse 2:

E|------------------------------------------------------------------------|
B|------------------------------------------------------------------------|
G|------------------------------------------------------------------------|
D|------------------------------------------------------------------------|
A|------------------------------------------------------------------------|
E|--2-x16-----------------3-x8---------5-x4--3-x4--2-x4-------------------|
 I held your hand (ahh) It felt like a movie

E|------------------------------------------------------------------------|
B|------------------------------------------------------------------------|
G|------------------------------------------------------------------------|
D|------------------------------------------------------------------------|
A|------------------------------------------------------------------------|
E|--2-x12-----------------3-x8---------5-x4--3-x4-------------------------|
  I made some plans (ahh) but you were already

E|------------------------------------------------------------------------|
B|------------------------------------------------------------------------|
G|------------------------------------------------------------------------|
D|------------------------------------------------------------------------|
A|------------------------------------------------------------------------|
E|--2-x8-----------------7-x8---5-x8-----------10-x4--9-x4--7-x4----------|
  Moving on            now, I'm stuck under a rainy cloud but you don't

E|------------------------------------------------------------------------|
B|------------------------------------------------------------------------|
G|------------------------------------------------------------------------|
D|-------------5----------------------------------------------------------|
A|-------------5----------------------------------------------------------|
E|--5-x4-------3----------------------------------------------------------|
    seem to   care     but it's alright 'cause



Chorus:

E|------------------------------------------------------------------------|
B|------------------------------------------------------------------------|
G|-----7------------------------------------------------------------------|
D|-----7------------4-------------5--------------9------------10----------|
A|-----5------------4-------------5--------------9------------10----------|
E|------------------2-------------3--------------7------------8-----------|
   It's too late to pretend, you know me better than I know myself

E|------------------------------------------------------------------------|
B|------------------------------------------------------------------------|
G|------------------------------------------------------------------------|
D|--------------------------5-----------12-------7-7----5-5---------------|
A|--------------------------5-----------12-------7-7----5-5---------------|
E|--------------------------3-----------10-------5-5----3-3---------------|
   Don't take my heart and put it on a shelf yeah!

E|------------------------------------------------------------------------|
B|------------------------------------------------------------------------|
G|-----7------------------------------------------------------------------|
D|-----7------------4----------5-----------------9--------------------10--|
A|-----5------------4----------5-----------------9--------------------10--|
E|------------------2----------3-----------------7--------------------8---|
   Always someone else, the  next guy who will  Make your cold heart melt

E|------------------------------------------------------------------------|
B|------------------------------------------------------------------------|
G|------------------------------------------------------------------------|
D|---------------------5----------------12-------7-7----5-5---------------|
A|---------------------5----------------12-------7-7----5-5---------------|
E|---------------------3----------------10-------5-5----3-3---------------|
   I'm gonna give my love to someone else



Bridge:

E|-------------------------------------------------------------------------|
B|-------------------------------------------------------------------------|
G|-------------------------------------------------------------------------|
D|--12-12-12-14---5---5-5---7-12-12---11-11-12--12-12-14-12---5-5-5-7-5-5-5|
A|--12-12-12-14---5---5-5---7-12-12---11-11-12--12-12-14-12---5-5-5-7-5-5-5|
E|--10-10-10-12---3---3-3---5-10-10---9--9--10--10-10-12-10---3-3-3-5-3-3-3|

E|-------------------------------------------------------------------------|
B|-------------------------------------------------------------------------|
G|--7-9-7-9-7-9------------------------------------------------------------|
D|--7-9-7-9-7-9------4-4-4--5--------7-------------------------------------|
A|--5-7-5-7-5-7------4-4-4--5-(fade)-7-(fade)------------------------------|
E|-------------------2-2-2--3--------5-------------------------------------|



Chorus:

E|-------------------------------------------2--3--2--0-------------------|
B|---------------------------------------------------3--------------------|
G|------------------------------------------------------------------------|
D|--------------------------4---5---12----7--------------12---10----------|
A|--5-x8--4-x8--2-x8--3-x8--4---5---12----7--------------12---10----------|
E|--------------------------2---3---10----5--------------10---8-----------|
                                  la la la...


Solo:

E|--2--3--2--0------------------------------------|
B|--------------3--0--3--5--3----3--5--8--7-------|
G|-----------------------------3------------------|
D|------------------------------------------------|
A|------------------------------------------------|
E|------------------------------------------------|

E|---------------------12--10------|
B|---------------------------------|
G|---------------------------------|
D|--5--7--9--12--7--9--------------|
A|---------------------------------|
E|---------------------------------|



Chorus:

E|------------------------------------------------------------------------|
B|------------------------------------------------------------------------|
G|-----7------------------------------------------------------------------|
D|-----7------------4----------5-----------------9--------------------10--|
A|-----5------------4----------5-----------------9--------------------10--|
E|------------------2----------3-----------------7--------------------8---|
   Always someone else, the  next guy who will  Make your cold heart melt

E|------------------------------------------------------------------------|
B|------------------------------------------------------------------------|
G|------------------------------------------------------------------------|
D|---------------------5----------------12--------------------------------|
A|---------------------5----------------12--------------------------------|
E|---------------------3----------------10--------------------------------|
   I'm gonna give my love to someone else

OR

E|-----------------------------------12--10--7--3--2----------------------|
B|------------------------------------------------------------------------|
G|------------------------------------------------------------------------|
D|---------------------5--------------------------------------------------|
A|---------------------5--------------------------------------------------|
E|---------------------3--------------------------------------------------|
   I'm gonna give my love to someone else


Lyrics:

She's such a flirt
And I am the lonely heart
Give it a chance
For our love to start
But you'll never see
If you don't give me a shot
To show you what I've got, but

(Chorus)
It's too late to pretend
You know me better than I know myself
Don't take my heart and put it on a shelf
Always someone else
The next guy who will
Make your cold heart melt
I'm gonna give my love to someone else

I held your hand (ah ah)
It felt like a movie
I made some plans (ah ah)
But you were already moving on
Now, I'm stuck under a rainy cloud
But you don't seem to care
But it's alright 'cause

(Chorus)
It's too late to pretend
You know me better than I know myself
Don't take my heart and put it on a shelf (yeah)
Always someone else
The next guy who will
Make your cold heart melt
I'm gonna give my love to someone else

I'm tired of wasting all my time
My heart is hanging on the line
Is it me girl or someone else
Please take it off the shelf

(Chorus)
It's too late to pretend
You know me better than I know myself
Don't take my heart and put it on a shelf

La la la la la
La la la la la

Everybody!

Always someone else
The next guy who will
Make your cold heart melt
I'm gonna give my love to someone else
Yeah

Woo hooooo
Composição de Joe Jonas / Kevin Jonas / Nick Jonas
Colaboração e revisão:
  • Marcos Land
  • Lucas Michelin
15.331 exibições
    • ½ Tom
    • A
    • Bb
    • B
    • C
    • Db
    • D
    • Eb
    • E
    • F
    • F#
    • G
    • Ab
  • Adicionar à lista

    0 comentários

    Ver todos os comentários

    Conseguiu tocar?

    1 Tocaram 0 Ainda não

    Grave um vídeo tocando Shelf e nos envie!

    00:00 / 00:00
    Outros vídeos desta música
    Repetir Qualidade Automático
    Outros vídeos desta música
    00:00 / 00:00
    Automático

    Cifra Club Pro

    Aproveite o Cifra Club com benefícios exclusivos e sem anúncios
    Cifra Club Pro
    Aproveite o Cifra Club com benefícios exclusivos e sem anúncios
    OK