Cifra Club

Ave Maria

Jorge Aragão

Cifra: Principal
exibições 173.055
Tom: G
e|------------------|--0---------------------------------------------- 
B|--0--1--3-----0---|-------------------0-----3----------------------- 
G| ----------2------|------------0---2-----2-----------------0--2---0- 
D|------------------|------2--4-------------------0---2--4------------ 
A|------------------|------------------------------------------------- 
E|------------------|------------------------------------------------- 
 
e|--3--------------------------|--------------0------ 
B|-----------0--2--0-----------|--0---1---3---------- 
G|-----0--2-----------2--------|--------------------- 
D|------------------------2--4-|------------------2-- 
A|-----------------------------|--------------------- 
E|-----------------------------|--------------------- 
 
e|-----------------|----------------0--2--0----------- 
B|----0--1---3-----|-------0--1--3-----------3------0- 
G|-2---------------|-0--2------------------------2---- 
D|--------------0--|---------------------------------- 
A|-----------------|---------------------------------- 
E|-----------------|---------------------------------- 
 
e|----------0-----0----|-0--3----3--3------ 
B|-3--0--0-------------|------------------- 
G|-------------------0-|-------3--------2-- 
D|-------------2-------|------------------- 
A|---------------------|------------------- 
E|---------------------|------------------- 
 
e|--------------------------------5--2----|---2--3--7--3------------- 
B|-2--2---0----3--0----1--1-------------3-|-5--------------3---0----- 
G|--------------------0------4--2---------|-----------------------2-- 
D|-----------4----------------------------|-------------------------- 
A|----------------------------------------|-------------------------- 
E|----------------------------------------|-------------------------- 
 
e|--0--2--0------|-5--2---------------------|-------------|          
B|-----------3---|-------3---1--------------|--------3----| 
G|---------------|---------------2----------|--0----------|          
D|---------------|------------------4---0---|-------------| 
A|---------------|--------------------------|-------------|          
E|---------------|--------------------------|-------------|
Acordes para:
    Composição: Charles GounodColaboração e revisão:
    • Gustavo Silva

    0 comentários

      mostrar mais comentários

      Conseguiu tocar?

      9tocaram0ainda não

      Grave um vídeo tocando Ave Maria e mande pra gente!

      00:00 / 00:00
      outros vídeos desta música
      repetirqualidadeautomática
      Outro vídeos desta música
        00:00 / 00:00
        automática
        OK